Oops, an error
Loading. Please wait.

Voices Of Violence bass

version 1
version 1

Whole song

Interactive

3,963 views 6 this week
11 commentsread comments
1 2 3 4 5
x 6
add to favorites
×
Save as Personal and add changes to this tab that will be seen only by you. Learn more ›
×
You can save this tab as Personal to edit and correct it or add notes. All changes will be seen only by you. Learn more »
launch autoscroll
font size
0
reset
guitar tuner
edit
Autoscroll
slow
fast
+/-
esc
set tempo
stop
Song: Voices Of Violence
Album: Billy Talent
Band: Billy Talent
Tabbed By: Masterbasser36

Intro/Chorus
G|-----------------------------------------------------------------------------------|
D|-----------------------------------------------------------------------------------|
A|----------5555555-3333333-1111111-------3333333-0000000-1111111--------------------|
D|---5555555------------------------0000000------------------------------------------|

Riff 1
G|------------------------------------------------------------------------------------|
D|------------------------------------------------------------------------------------|
A|---444-555-777-555--444-555-777-888----444-555-777-444---0-0-000-0000-0-0-000-0000--|
D|------------------------------------------------------------------------------------|

Riff 2
G|-----------------------------------------------------------------|
D|----7-7-7-7-7-7-7-7--7-7-7-7-7-7-7-7-----------------------------|
A|---4-5-7-5-4-5-7-8--4-5-7-5-4-5-7-8---0-0-000-0000-00-000-0000---|
D|-----------------------------------------------------------------|

Bridge                                x2
G|------------------------------------|
D|------------------------------------|
A|---0----0----0--1--4--5------4--5---|
D|------------------------2--3--------|


Riff 3                                       x2
G|-------------------------------------------|
D|-------------------------------------------|
A|---00000-111-44444-555---------44444-555---|
D|----------------------22222-333------------|

Please Rate And Enjoy!
Suggest correction
Creating personal tab
Creating personal tab
You can edit any tab online and save it as your Personal.

You can edit, replace or remove any tab part or add personal notes – all changes will be seen only by you.

Personal tabs can be accessed anytime from any device, even offline.
Learn more »
comments
print report bad tab
11 comments total. Showing first comments.
0 reply
Masterbasser36 651 May 25, 2006 04:03 PM

uh oh, i found my own mistake:

G|-----------------------------------------------------------------|
D|----7-7-7-7-7-7-7-7--7-7-7-7-7-7-7-7-----------------------------|
A|---4-5-7-5-4-5-7-8--4-5-7-5-4-5-7-8---0-0-000-0000-00-000-0000---|
D|-----------------------------------------------------------------|

its like that, your not supposed to play chords XD.
the 7s are in between the other notes, sry, my mistake, added an extra -

0 reply
Zuka 403 May 25, 2006 04:55 PM

Yeah, kid, Jees. I was wondering what the hell you were tabbing. Ah, well, out of your... 5 tabs today, was it? Ah, they all seem fine to me.

0 reply
Masterbasser36 651 May 26, 2006 05:21 PM

yeah, i made the tabs a little while ago

i thought i had changed any mistakes but meh

thanks

guest
You may want to rate the tab now too:
select rating
Wanna post a correction for this tab? Suggest correction