Oops, an error
Loading. Please wait.

Where Is The Line bass

version 1
version 1

Whole song

Interactive

5,896 views 1 this week
no commentswrite comment
1 2 3 4 5
x 6
add to favorites
×
Save as Personal and add changes to this tab that will be seen only by you. Learn more ›
×
You can save this tab as Personal to edit and correct it or add notes. All changes will be seen only by you. Learn more »
launch autoscroll
font size
0
reset
guitar tuner
edit
Autoscroll
slow
fast
+/-
esc
set tempo
stop
Album: Billy Talent II
Tabbed by Tony D (Temp144)
Tuning: Drop D

Track 7 off Billy Talent II.
They've had this song on the backburner for a while, cause I heard them play this at 
last year, but they decided to release it. The bass is straight forward, but the chorus and 
have some small tech parts, so you have to watch out when playing, but I'll fix my errors later.
Comment,Rate and Enjoy! Long Live Taborama!

Intro:1x
G|--------------------------------------------------------------|
D|--------------------------------------------------------------|
A|-2--4--5-------------------------2--4--5----------------------|
D|----------0--5-5--2-2--5-5--2-2-----------0--5(ring)--2(ring)-|

Chorus:1x
G|----------------------------------------------------------|
D|-----------------44-55-44-2------------------222----------|
A|---555--5555----------------22-44-55-44-2-00--------------|
D|-00---00-----2222--------------------------------44444444-|

Verse:2x
G|----------------------------------------------222--2222-|
D|-----------------44-2-----------22-0--------------------|
A|---555--5555-----------------22------2222-2-00--000-----|
D|-00---00------22------2222-2----------------------------|

Pre-Chorus:1x
G|-------------------------------------------------------------------------|
D|-------------------------------------------------------------------------|
A|--------------------22222222-44444444-------------------22222222-0(ring)-|
D|-22222222-555555555-------------------22222222-55555555------------------|

Chorus:2x
Verse:2x
Pre-Chorus:1x
Chorus:2x

Bridge:2x
G|------------------------------------------------------------------------|
D|------------------------------------------------------------------------|
A|--2222-4h5h4-----------------------------------------------00-0-0-0-----|
D|-------------2222-4h5h4-55-5-5-5-0-0-0-0--55555555-22222222---------5-4-|

Post Bridge: Play Intro
Chorus:2x

Ending Chorus:2x
G|----------------------------------------222--2222-|
D|--------------------------------------------------|
A|-55555555555-77777777777-222222222222-00--00------|
D|--------------------------------------------------|

Ending:1x
G|-----------|
D|-----------|
A|-----------|
D|-0(ring)---|

            
            
Suggest correction
Creating personal tab
Creating personal tab
You can edit any tab online and save it as your Personal.

You can edit, replace or remove any tab part or add personal notes – all changes will be seen only by you.

Personal tabs can be accessed anytime from any device, even offline.
Learn more »
comments
print report bad tab
guest
You may want to rate the tab now too:
select rating
Wanna post a correction for this tab? Suggest correction