Oops, an error
Loading. Please wait.

Where Is The Line tab

version 1
version 1

Whole song

Interactive

24,107 views 6 this week
6 commentsread comments
1 2 3 4 5
x 17
add to favorites
×
Save as Personal and add changes to this tab that will be seen only by you. Learn more ›
×
You can save this tab as Personal to edit and correct it or add notes. All changes will be seen only by you. Learn more »
launch autoscroll
font size
0
reset
how to read this tab
guitar tuner
edit
Autoscroll
slow
fast
+/-
esc
set tempo
stop
Artist: Billy Talent
Song: Where is the Line?
Album: Billy Talent II

FINALLY EDITED



INTRO
======
e|---------------------------------|-------------0---------------0---|
B|-------3-------3-------3-------3-|-----5-------3-------5-------3---|
G|-----0-------0-------0-------0---|-----7-------0-------7-------0---|
D|---4-------4-------4-------4-----|-5-5-5---2-2-----5-5-5---2-2-----|
A|-2-------4-------5---------------|-5-5-----2-2-----5-5-----2-2-----|
D|-------------------------0-------|-5-5-----2-2-----5-5-----2-2-----|
                                     . .     . .     . .     . .

e|---------------------------------|-5~~~~~~~~~~~~~~-2~~~~~~~~~~~~~~-|
B|-------3-------3-------3-------3-|-7~~~~~~~~~~~~~~-3~~~~~~~~~~~~~~-|
G|-----0-------0-------0-------0---|-7~~~~~~~~~~~~~~-4~~~~~~~~~~~~~~-|
D|---4-------4-------4-------4-----|-5~~~~~~~~~~~~~~-2~~~~~~~~~~~~~~-|
A|-2-------4-------5---------------|-5~~~~~~~~~~~~~~-2~~~~~~~~~~~~~~-|
D|-------------------------0-------|-5~~~~~~~~~~~~~~-2~~~~~~~~~~~~~~-|

e|-5---5---5-5-5-5---5-5---5-5-5-5-|---------------------------------|
B|-7---7---7-7-7-7---7-7---7-7-7-7-|-7---7---7-7-7-7---7-7---7-7-7-7-|
G|-7---7---7-7-7-7---7-7---7-7-7-7-|-7---7---7-7-7-7---7-7---7-7-7-7-|
D|-7---7---7-7-7-7---7-7---7-7-7-7-|-5---5---5-5-5-5---5-5---5-5-5-5-|
A|-5---5---5-5-5-5---5-5---5-5-5-5-|-7---7---7-7-7-7---7-7---7-7-7-7-|
D|---------------------------------|---------------------------------|

e|-0---0---0-0-0-0---0-0---0-0-0-0-|-0-0-0-0-------------------------|
B|-3---3---3-3-3-3---3-3---3-3-3-3-|-2-2-2-2-2h3p2-------------------|
G|-4---4---4-4-4-4---4-4---4-4-4-4-|-2-2-2-2-------------------------|
D|-4---4---4-4-4-4---4-4---4-4-4-4-|-2-2-2-2-------4---4-4-4-4-4-4-4-|
A|-2---2---2-2-2-2---2-2---2-2-2-2-|-0-0-0-0-------4---4-4-4-4-4-4-4-|
D|---------------------------------|---------------4---4-4-4-4-4-4-4-|


VERSE
======
e|-5~~~~~~~~~~~~~-0~~~~~~~~~~~~~~~-|-2~~~~~~~~~~~~~~-0~~~~~~~~~~~~~~-|
B|-7~~~~~~~~~~~~~-7~~~~~~~~~~~~~~~-|-3~~~~~~~~~~~~~~-2~~~~~~~~~~~~~~-|
G|-7~~~~~~~~~~~~~-7~~~~~~~~~~~~~~~-|-4~~~~~~~~~~~~~~-0~~~~~~~~~~~~~~-|
D|-7~~~~~~~~~~~~~-5~~~~~~~~~~~~~~~-|-4~~~~~~~~~~~~~~-2~~~~~~~~~~~~~~-|
A|---------------------------------|----------------(0)~~~~~~~~~~~~~-|
D|---------------------------------|---------------------------------|

e|-5~~~~~~~~~~~~~-0~~~~~~~~~~~~~~~-|-2~~~~~~~~~~~~~~-0-0-0-0-------0-|
B|-7~~~~~~~~~~~~~-7~~~~~~~~~~~~~~~-|-3~~~~~~~~~~~~~~-2-2-2-2-2h3p2-2-|
G|-7~~~~~~~~~~~~~-7~~~~~~~~~~~~~~~-|-4~~~~~~~~~~~~~~-2-2-2-2-------2-|
D|-7~~~~~~~~~~~~~-5~~~~~~~~~~~~~~~-|-4~~~~~~~~~~~~~~-2-2-2-2-------2-|
A|---------------------------------|-------------------------------0-|
D|---------------------------------|---------------------------------|


PRE-CHORUS
===========
e|---------------------------------|---------------------------------|
B|---------------------------------|-3-3-3-3-3-3-3-3-5-5-5-5-5-5-5-5-|
G|---------------------------------|-4-4-4-4-4-4-4-4-6-6-6-6-6-6-6-6-|
D|-2---2-2-2---2---5---5-5-5---5---|-4-4-4-4-4-4-4-4-0-0-0-0-0-0-0-0-|
A|-2---2-2-2---2---5---5-5-5---5---|-2-2-2-2-2-2-2-2-4-4-4-4-4-4-4-4-|
D|-2---2-2-2---2---5---5-5-5---5---|---------------------------------|

e|---------------------------------|---------------------------------|
B|---------------------------------|-3-3-3-3-3-3-3-3-5~~~~~~~~~------|
G|---------------------------------|-4-4-4-4-4-4-4-4-6~~~~~~~~~------|
D|-2---2-2-2---2---5---5-5-5---5---|-4-4-4-4-4-4-4-4-0~~~~~~~~~------|
A|-2---2-2-2---2---5---5-5-5---5---|-2-2-2-2-2-2-2-2-4~~~~~~~~~-////-|
D|-2---2-2-2---2---5---5-5-5---5---|---------------------------------|


CHORUS (x2)
============
e|-5---5---5-5-5-5---5-5---5-5-5-5-|---------------------------------|
B|-7---7---7-7-7-7---7-7---7-7-7-7-|-7---7---7-7-7-7---7-7---7-7-7-7-|
G|-7---7---7-7-7-7---7-7---7-7-7-7-|-7---7---7-7-7-7---7-7---7-7-7-7-|
D|-7---7---7-7-7-7---7-7---7-7-7-7-|-5---5---5-5-5-5---5-5---5-5-5-5-|
A|-5---5---5-5-5-5---5-5---5-5-5-5-|-7---7---7-7-7-7---7-7---7-7-7-7-|
D|---------------------------------|---------------------------------|

e|-0---0---0-0-0-0---0-0---0-0-0-0-|-0-0-0-0-------------------------|
B|-3---3---3-3-3-3---3-3---3-3-3-3-|-2-2-2-2-2h3p2-------------------|
G|-4---4---4-4-4-4---4-4---4-4-4-4-|-2-2-2-2-------------------------|
D|-4---4---4-4-4-4---4-4---4-4-4-4-|-2-2-2-2-------4---4-4-4-4-4-4-4-|
A|-2---2---2-2-2-2---2-2---2-2-2-2-|-0-0-0-0-------4---4-4-4-4-4-4-4-|
D|---------------------------------|---------------4---4-4-4-4-4-4-4-|

VERSE
======
e|-5~~~~~~~~~~~~~-0~~~~~~~~~~~~~~~-|-2~~~~~~~~~~~~~~-0~~~~~~~~~~~~~~-|
B|-7~~~~~~~~~~~~~-7~~~~~~~~~~~~~~~-|-3~~~~~~~~~~~~~~-2~~~~~~~~~~~~~~-|
G|-7~~~~~~~~~~~~~-7~~~~~~~~~~~~~~~-|-4~~~~~~~~~~~~~~-0~~~~~~~~~~~~~~-|
D|-7~~~~~~~~~~~~~-5~~~~~~~~~~~~~~~-|-4~~~~~~~~~~~~~~-2~~~~~~~~~~~~~~-|
A|---------------------------------|----------------(0)~~~~~~~~~~~~~-|
D|---------------------------------|---------------------------------|

e|-5~~~~~~~~~~~~~-0~~~~~~~~~~~~~~~-|-2~~~~~~~~~~~~~~-0-0-0-0-------0-|
B|-7~~~~~~~~~~~~~-7~~~~~~~~~~~~~~~-|-3~~~~~~~~~~~~~~-2-2-2-2-2h3p2-2-|
G|-7~~~~~~~~~~~~~-7~~~~~~~~~~~~~~~-|-4~~~~~~~~~~~~~~-2-2-2-2-------2-|
D|-7~~~~~~~~~~~~~-5~~~~~~~~~~~~~~~-|-4~~~~~~~~~~~~~~-2-2-2-2-------2-|
A|---------------------------------|-------------------------------0-|
D|---------------------------------|---------------------------------|


PRE-CHORUS
===========
e|---------------------------------|---------------------------------|
B|---------------------------------|-3-3-3-3-3-3-3-3-5-5-5-5-5-5-5-5-|
G|---------------------------------|-4-4-4-4-4-4-4-4-6-6-6-6-6-6-6-6-|
D|-2---2-2-2---2---5---5-5-5---5---|-4-4-4-4-4-4-4-4-0-0-0-0-0-0-0-0-|
A|-2---2-2-2---2---5---5-5-5---5---|-2-2-2-2-2-2-2-2-4-4-4-4-4-4-4-4-|
D|-2---2-2-2---2---5---5-5-5---5---|---------------------------------|

e|---------------------------------|---------------------------------|
B|---------------------------------|-3-3-3-3-3-3-3-3-5~~~~~~~~~------|
G|---------------------------------|-4-4-4-4-4-4-4-4-6~~~~~~~~~------|
D|-2---2-2-2---2---5---5-5-5---5---|-4-4-4-4-4-4-4-4-0~~~~~~~~~------|
A|-2---2-2-2---2---5---5-5-5---5---|-2-2-2-2-2-2-2-2-4~~~~~~~~~-////-|
D|-2---2-2-2---2---5---5-5-5---5---|---------------------------------|


CHORUS (x2)
============
e|-5---5---5-5-5-5---5-5---5-5-5-5-|---------------------------------|
B|-7---7---7-7-7-7---7-7---7-7-7-7-|-7---7---7-7-7-7---7-7---7-7-7-7-|
G|-7---7---7-7-7-7---7-7---7-7-7-7-|-7---7---7-7-7-7---7-7---7-7-7-7-|
D|-7---7---7-7-7-7---7-7---7-7-7-7-|-5---5---5-5-5-5---5-5---5-5-5-5-|
A|-5---5---5-5-5-5---5-5---5-5-5-5-|-7---7---7-7-7-7---7-7---7-7-7-7-|
D|---------------------------------|---------------------------------|

e|-0---0---0-0-0-0---0-0---0-0-0-0-|-0-0-0-0-------------------------|
B|-3---3---3-3-3-3---3-3---3-3-3-3-|-2-2-2-2-2h3p2-------------------|
G|-4---4---4-4-4-4---4-4---4-4-4-4-|-2-2-2-2-------------------------|
D|-4---4---4-4-4-4---4-4---4-4-4-4-|-2-2-2-2-------4---4-4-4-4-4-4-4-|
A|-2---2---2-2-2-2---2-2---2-2-2-2-|-0-0-0-0-------4---4-4-4-4-4-4-4-|
D|---------------------------------|---------------4---4-4-4-4-4-4-4-|
                                                       . . . .

BRIDGE (x2)
============
e|---------------------|-----------------|-----------------|------------------|
B|---------------------|-----------------|-----------------|------------------|
G|---------------------|-----------------|---------7---9---|-11--11--11-9p7---|
D|-9-9-9-9-11h12p11----|-2-2-2-2-4h5-4p0-|-5-5-9-5---5---5-|-0---0---0----0---|
A|-9-9-9-9----------12-|-2-2-2-2---------|-5-5---5---5---5-|-0---0---0----0---|
D|-9-9-9-9-------------|-2-2-2-2---------|-5-5---5---5---5-|-0---0---0----0---|

e|---------------------------------|----------------------------------|
B|---------------------------------|----------------------------------|
G|-7-7-7-7-7-7-7-7-4-4-4-4-4-4-4-4-|-9-9-9-9-9h11p9-9-7---7-7-6---6-6-|
D|-5-5-5-5-5-5-5-5-2-2-2-2-2-2-2-2-|-7-7-7-7-7-7--7-7-5---5-5-4---4-4-|
A|-5-5-5-5-5-5-5-5-2-2-2-2-2-2-2-2-|-7-7-7-7-7-7--7-7-5---5-5-4---4-4-|
D|-5-5-5-5-5-5-5-5-2-2-2-2-2-2-2-2-|-7-7-7-7-7-7--7-7-5---5-5-4---4-4-|


PRE-CHORUS
===========
e|---------------------------------|-------------0---------------0---|
B|-------3-------3-------3-------3-|-----5-------3-------5-------3---|
G|-----0-------0-------0-------0---|-----7-------0-------7-------0---|
D|---4-------4-------4-------4-----|-5-5-5---2-2-----5-5-5---2-2-----|
A|-2-------4-------5---------------|-5-5-----2-2-----5-5-----2-2-----|
D|-------------------------0-------|-5-5-----2-2-----5-5-----2-2-----|
                                     . .     . .     . .     . .

e|---------------------------------|-5~~~~~~~~~~~~~~-2~~~~~~~~~~~~~~-|
B|-------3-------3-------3-------3-|-7~~~~~~~~~~~~~~-3~~~~~~~~~~~~~~-|
G|-----0-------0-------0-------0---|-7~~~~~~~~~~~~~~-4~~~~~~~~~~~~~~-|
D|---4-------4-------4-------4-----|-5~~~~~~~~~~~~~~-2~~~~~~~~~~~~~~-|
A|-2-------4-------5---------------|-5~~~~~~~~~~~~~~-2~~~~~~~~~~~~~~-|
D|-------------------------0-------|-5~~~~~~~~~~~~~~-2~~~~~~~~~~~~~~-|


CHORUS (x2)
============
e|-5---5---5-5-5-5---5-5---5-5-5-5-|---------------------------------|
B|-7---7---7-7-7-7---7-7---7-7-7-7-|-7---7---7-7-7-7---7-7---7-7-7-7-|
G|-7---7---7-7-7-7---7-7---7-7-7-7-|-7---7---7-7-7-7---7-7---7-7-7-7-|
D|-7---7---7-7-7-7---7-7---7-7-7-7-|-5---5---5-5-5-5---5-5---5-5-5-5-|
A|-5---5---5-5-5-5---5-5---5-5-5-5-|-7---7---7-7-7-7---7-7---7-7-7-7-|
D|---------------------------------|---------------------------------|

e|-0---0---0-0-0-0---0-0---0-0-0-0-|-0-0-0-0-------------------------|
B|-3---3---3-3-3-3---3-3---3-3-3-3-|-2-2-2-2-2h3p2-------------------|
G|-4---4---4-4-4-4---4-4---4-4-4-4-|-2-2-2-2-------------------------|
D|-4---4---4-4-4-4---4-4---4-4-4-4-|-2-2-2-2-------4---4-4-4-4-4-4-4-|
A|-2---2---2-2-2-2---2-2---2-2-2-2-|-0-0-0-0-------4---4-4-4-4-4-4-4-|
D|---------------------------------|---------------4---4-4-4-4-4-4-4-|


OUTRO (x2)
===========
    x16     x16     x16
e|---5---|-------|---0---|-0-0-0-0-------0---0-0-0---------|
B|---7---|---7---|---3---|-2-2-2-2-2h3p2-2---2-2-2-2h3p2---|
G|---7---|---7---|---4---|-2-2-2-2-------2---2-2-2---------|
D|---7---|---5---|---4---|-2-2-2-2-------2---2-2-2---------|
A|---5---|---7---|---2---|-0-0-0-0-------0---0-0-0---------|
D|-------|-------|-------|---------------------------------|

e|-----------------------|
B|-----------------------|
G|-----------------------|
D|-0~~~~~~~~~~~~~~~~~~---|
A|-0~~~~~~~~~~~~~~~~~~---|
D|-0~~~~~~~~~~~~~~~~~~---|

© Copyright, george92

            
            
Suggest correction
Creating personal tab
Creating personal tab
You can edit any tab online and save it as your Personal.

You can edit, replace or remove any tab part or add personal notes – all changes will be seen only by you.

Personal tabs can be accessed anytime from any device, even offline.
Learn more »
comments
print report bad tab
6 comments total. Showing first comments.
+1 reply
shoebox_of_lies 2,843 Jul 04, 2006 02:36 PM

perfect tab but in the bridge it might sound better if you bend those hammer-ons/pull-offs

-2 reply
Zuka 403 Aug 02, 2006 04:47 PM

Hmm, I don't know. I won't rate it, but I still don't think it sounds as right as mine does... (By the way I haven't submitted one, yet...)

0 reply
|T4Z| 1,696 Aug 03, 2006 06:11 PM

Nice tab credit due

guest
You may want to rate the tab now too:
select rating
Wanna post a correction for this tab? Suggest correction