Oops, an error
Loading. Please wait.

White Sparrows bass

version 2
version 2

Whole song

Interactive

2,554 views 1 this week
2 commentsread comments
1 2 3 4 5
x 4
add to favorites
×
Save as Personal and add changes to this tab that will be seen only by you. Learn more ›
×
You can save this tab as Personal to edit and correct it or add notes. All changes will be seen only by you. Learn more »
launch autoscroll
font size
0
reset
guitar tuner
backing track
0:00
0:00
edit
Autoscroll
slow
fast
+/-
esc
set tempo
stop
Author
I tabbed this with the aid of the 'Guitar Villain' edition of BTIII. I'm pretty 
with it, but if you have any corrections, feel free to post them.

Intro (0:09)
G|-------------------------------------|
D|-------------------------------------|
A|---2~---6~----5~-----1~--------------|
D|--------------------------444---0~---|


Verse 1:
G|------------------------------|
D|------------------------------|
A|--7~--5-6-----7~--5-6---------|
D|----------4-5---------4-5-----|

G|--------------------------------------------------------|
D|--------------------------------------------------------|
A|--------------7~--5-6------7~--5-6-----6----------------|
D|-5~--3~--2~-----------4-5----------4-5---4~--3~--2~-444~|
              "The cold wind blows..."


Pre-Chorus: (0:41) 
G|--------------------------------|
D|--------------------------------|
A|-3~-3-----3~-3-----6~----6~-6---|
D|------33-------33-----66------66|


Chorus: x2
G|----------------------------------------|
D|----------------------------------------|
A|-33333333-------------------------------|
D|----------55555555-00000000-11111111----|


Play After:
G|---------------------------------------|
D|---------------------------------------|
A|---2~---6~----4~-----1~----------------|
D|--------------------------444---0~-----|

Verse 2:
G|------------------------------|
D|------------------------------|
A|--7~--5-6-----7~--5-6---------|
D|----------4-5---------4-5-----|

G|--------------------------------------------------------|
D|--------------------------------------------------------|
A|--------------7~--5-6------7~--5-6-----6----------------|
D|-5~--3~--2~-----------4-5----------4-5---4~--3~--2~-444~|
              "My heart just stopped..."


Pre-Chorus: (1:36) 
G|--------------------------------|
D|--------------------------------|
A|-3~-3-----3~-3-----6~----6~-6---|
D|------33-------33-----66------66|


Chorus: x2
G|----------------------------------------|
D|----------------------------------------|
A|-33333333-------------------------------|
D|----------55555555-00000000-11111111----|

G|---------------------------------------------------------------|
D|---------------------------------------------------------------|
A|-33333333----------------------------3333333333333333----------|
D|----------55555555-00000000-11111111------------------55555555-|


Bridge: (2:12)
G|-------------------------------------------------------|
D|-------------------------------------------------------|
A|--------------------------------------33333333---------|
D|-2-222222--0-0-0-0--2-222222--0-0-0-0---------55555555-|

G|-----------------------------------------------------------------------------------|
D|-----------------------------------------------------------------------------------|
A|--------------------------------------------------------33333333----------33333333-|
D|-2-222222--0-0-0-0--2-222222--0-0-0-0-2-222222--0-0-0-0---------55555555-----------|


Chorus: x2
G|----------------------------------------|
D|----------------------------------------|
A|-33333333-------------------------------|
D|----------55555555-00000000-11111111----|

PLay After:
G|---------------------------------------------------------------|
D|---------------------------------------------------------------|
A|-33333333----------------------------3333333333333333----------|
D|----------55555555-00000000-11111111------------------55555555-|


G|----------------------------------------|
D|----------------------------------------|
A|-3333333333333333------------------4~---|
D|------------------5555555555555555------|
Suggest correction
Creating personal tab
Creating personal tab
You can edit any tab online and save it as your Personal.

You can edit, replace or remove any tab part or add personal notes – all changes will be seen only by you.

Personal tabs can be accessed anytime from any device, even offline.
Learn more »
comments
print report bad tab
2 comments total.
-1 reply
Skerlnik 136 Sep 05, 2009 06:29 PM

Completely wrong. Check your A string and low D string tuning.

0 reply
CrashAshes43 150 Nov 26, 2009 12:35 PM

It should be tuned down another half-step to Db like the guitar. If you do that, you'll see the song follows the base notes of the chords Ian plays. So I guess points for trying? 3*

guest
You may want to rate the tab now too:
select rating
Wanna post a correction for this tab? Suggest correction