Oops, an error
Loading. Please wait.
We have an official White Sparrows tab made by UG professional guitarists. Check out the tab »
×
6,516 views 12 this week
5 commentsread comments
1 2 3 4 5
x 6
add to favorites
×
Save as Personal and add changes to this tab that will be seen only by you. Learn more ›
×
You can save this tab as Personal to edit and correct it or add notes. All changes will be seen only by you. Learn more »
launch autoscroll
font size
0
reset
guitar tuner
backing track
0:00
0:00
edit
Autoscroll
slow
fast
+/-
esc
set tempo
stop
Tabbed by Skerlnik.

White Sparrows [Billy Talent]
Drop C# 
(*Thanks to CrashAshes43 for pointing out the previous awkward tuning :)

Intro:1x
F#----------------------|
C#----------------------|
G#-3--7--5--------------|
C#---------7---2-2--2-0-|

Verse:1x
F#---------------------------------------------------|
C#---------------------------------------------------|
G#--7~---55--2-5--7~---55--2-5-3~--------------------|
C#----------------------------------7~---2-2-0-0-----|

F#---------------------------------------------------|
C#---------------------------------------------------|
G#-77~---55--2-5--77~---55--2-5-33~------------------|
C#----------------------------------77~---2-2---2-00-|

Pre-Chorus:2x
F#---------------------|
C#---------------------|
G#-3~---33~---7~---77~-|
C#---------------------|

Chorus:2x
F#-------------------------------------|
C#-------------------------------------|
G#-33333333----------------------------|
C#----------77777777-22222222-00000000-|


Post Chorus: Play Intro 1x
Verse: 2x
Pre-Chorus:2x

2nd Chorus:1x
F#-------------------------------------|
C#-------------------------------------| Play 2x
G#-33333333----------------------------|
C#----------77777777-22222222-00000000-|

F#----------------------------------------------------------------------|
C#----------------------------------------------------------------------| Play 1x
G#-33333333---------77777777--------------------------------------------|
C#---------77777777----------55555555-3333333333333333-7777777777777777-|

Bridge:1x
F#---------------------------------------------------|
C#---------------------------------------------------|
G#---------5-5-5-5--------5-5-5-5--33333333----------|
C#--2-2-222--------2-2-222------------------77777777-|

F#---------------------------------------------------------------------------|
C#---------------------------------------------------------------------------|
G#--------5-5-5-5--------5-5-5-5--------5-5-5-5---33333333-------------------|
C#-2-2-222--------2-2-222--------2-2-222-------------------77777777-22222222-|

2nd Chorus:1x

Outro:1x
F#-------------------------------------------------------------------------|
C#-------------------------------------------------------------------------|
G#----------------------------------------------------------------------7~-|
C#-3333333333333333-7777777777777777-3333333333333333-7777777777777777-----|

            
            
Suggest correction
Creating personal tab
Creating personal tab
You can edit any tab online and save it as your Personal.

You can edit, replace or remove any tab part or add personal notes – all changes will be seen only by you.

Personal tabs can be accessed anytime from any device, even offline.
Learn more »
comments
print report bad tab
5 comments total. Showing first comments.
0 reply
CrashAshes43 150 Nov 26, 2009 12:38 PM

Tab is correct, but that's an awkward tuning. Tune the rest of the strings a half-step down too and play the notes on the A string a fret up and you're good. 5*

-1 reply
thunderhawk 535 Jan 08, 2010 03:55 PM

its drop D why would you think its C#

+1 reply
Skerlnik 136 Jan 14, 2010 09:43 PM

It's Drop C# for the obvious reason of the all the low C#'s being played dude :)

guest
You may want to rate the tab now too:
select rating
Wanna post a correction for this tab? Suggest correction