Oops, an error
Loading. Please wait.

Worker Bees tab

version 1
version 1

Whole song

16,063 views 12 this week
11 commentsread comments
1 2 3 4 5
x 14
add to favorites
×
Save as Personal and add changes to this tab that will be seen only by you. Learn more ›
×
You can save this tab as Personal to edit and correct it or add notes. All changes will be seen only by you. Learn more »
launch autoscroll
font size
0
reset
how to read this tab
guitar tuner
backing track
0:00
0:00
edit
Autoscroll
slow
fast
+/-
esc
set tempo
stop
Billy Talent - Worker Bees

tabbed by: Shayne Yap
contact: bakuryu399@gmail.com

intro
|-3-----------------------------|
|-4---4---6-8-9-------3---4-8-6-|
|-5---0---7-5-7---5---0---0-5-7-|
|-5---1---6-5-6---6---0---1-5-6-|
|-3---3---5-6-8---6---2---3-6-5-|
|-----------------6-------------|

verse
|-------------------------------|-------------------------------|
|-8---4---6-8-9---1---3---4-8-6-|-8---4---6-8-9---1---3---4-6-8-|
|-8---5---7-8-10--1---4---5-8-7-|-8---5---7-8-10--1---4---5-7-8-|
|-------------------------------|-------------------------------|
|-------------------------------|-------------------------------|
|-------------------------------|-------------------------------|
(repeated notes)

chorus
|-------------------------------------|
|-9-9-9--888-666-------------------888|
|-101010-888-777-888-----8----7-------|
|-101010-888-777-666------------------|
|-8-8-8--666-555-666-5555-5555-5555---|
|----------------666-5555-5555-5555---|

|-------------------33333333----|
|-------------------44444444----|
|-88888888-77777777-55555555----|
|-55555555-55555555-55555555----|
|-66666666-55555555-33333333----|
|----------55555555-------------|


|------------------------------------------------|
|------------------------------------------------|
|----------------------------------------5555555-|
|-/1-111-0-111-0-6666666-0-1-111-0-111-0-5555555-|
|-/1-111-0-111-0-6666666-0-1-111-0-111-0-3333333-|
|-/1-111-0-111-0-6666666-0-1-111-0-111-0---------|

|------------------------------------------------------|
|------------------------------------------------------|
|---------------------------88888888-77777777-55555555-|
|-0-5-555-0-555-0-6666666-0-55555555-55555555-55555555-|
|-0-5-555-0-555-0-6666666-0-66666666-55555555-33333333-|
|-0-5-555-0-555-0-6666666-0----------------------------|

interlude
|---------------------8---7---8-10-11---8---10-11-13---11-13-15b~-|
|-8---4---6-8-9---9---9---8---9-12-13---8---12-13-15---13-15-16b~-|
|-8---5---7-8-10--8-----------------------------------------------|
|-----------------------------------------------------------------|
|-----------------------------------------------------------------|
|-----------------------------------------------------------------|
(repeated notes)

            
            
Suggest correction
Creating personal tab
Creating personal tab
You can edit any tab online and save it as your Personal.

You can edit, replace or remove any tab part or add personal notes – all changes will be seen only by you.

Personal tabs can be accessed anytime from any device, even offline.
Learn more »
comments
print report bad tab
11 comments total. Showing first comments.
0 reply
Zuka 403 Jun 29, 2006 09:36 AM

I begin to pity the idea of "tabbing"... Good job anyways.

0 reply
george92 135 Jul 14, 2006 01:04 PM

first chord is a Cm, not D#...

e|---3-----|
B|---4-----|
G|---5-----|
D|---5-----|
A|---3-----|
D|---------|

0 reply
A_GOOD_TABBER 145 Nov 16, 2006 05:31 PM

the verse chords were awesome!

I never thought they were right until now. I thought they were just power chords or somethin. I played them with the track and it sucked. But Ian D'sa actually even said that he made up some jazz chords that he took from piano and translated them to guitar, like yours probably. Not too crazy about the interlude and the end chorus chorus. Besides that, Good job! How long did it take you to play these chords down to speed? It's tough at first, ill tell ya...

guest
You may want to rate the tab now too:
select rating
Wanna post a correction for this tab? Suggest correction