Oops, an error
Loading. Please wait.

Where We Are chords

10 views 1 this week
no commentswrite comment
1 2 3 4 5
3 more votes to show rating
add to favorites
×
Save as Personal and add changes to this tab that will be seen only by you. Learn more ›
×
You can save this tab as Personal to edit and correct it or add notes. All changes will be seen only by you. Learn more »
launch autoscroll
font size
0
reset
transpose
0
reset
display chords
guitar tuner
edit
Autoscroll
slow
fast
+/-
esc
set tempo
stop
About this tab version
No capo, easy version of the song with intro. Was this info helpful? Yes No
Strumming
There is no strumming pattern for this song yet. and get +5 IQ
[Intro]
     C                 G              C               G
e|-----------------|---------------|---------------|-----------------------|
B|-------------3---|--0------------|---------------|------0----------------|
G|-------0---------|--0-----2--2---|---2---0---0---|--2--------------------|  
D|--2--------------|--0--0---------|---------------|--------------0--------|
A|--3--------------|---------------|---3-----------|----------2------------|
E|-----------------|--3------------|---------------|--3--------------------|

     C                 G              C               G
e|-----------------|---------------|---------------|-----------------------|
B|-------------3---|--0------------|---------------|-----------------------|
G|-------0---------|--0-----2--2---|---2---0---0---|--0--------------------|  
D|--2--------------|--0--0---------|---------------|------------0----------|
A|--3--------------|---------------|---3-----------|-------2---------------|
E|-----------------|--3------------|---------------|--3--------------------|

[Verse 1]
C                 G
I can't hold you close
       C             G
And I can't have you near
C       G
Or let you go or
C               G
Keep you here every night
C                    G
And I can't change a thing
       C                G
And I can't change your mind
C          Em
Or save the day
      C         G
Or go back in time

[Chorus]
       C          Em
Because where we are
        C           G
Is just where we are
C          Em     C       G
Falling farther from so far
C      Em   C       G
Underneath morning sheets
Em
Tell me
D        C
Tell me you need me

[Instrumental]
     C                 G              C               G
e|-----------------|---------------|---------------|-----------------------|
B|-------------3---|--0------------|---------------|------0----------------|
G|-------0---------|--0-----2--2---|---2---0---0---|--2--------------------|  
D|--2--------------|--0--0---------|---------------|--------------0--------|
A|--3--------------|---------------|---3-----------|----------2------------|
E|-----------------|--3------------|---------------|--3--------------------|

     C                 G              C               G
e|-----------------|---------------|---------------|-----------------------|
B|-------------3---|--0------------|---------------|-----------------------|
G|-------0---------|--0-----2--2---|---2---0---0---|--0--------------------|  
D|--2--------------|--0--0---------|---------------|------------0----------|
A|--3--------------|---------------|---3-----------|-------2---------------|
E|-----------------|--3------------|---------------|--3--------------------|

[Verse 2]
C          G           C          G
Twilight breaks and I break in two
C        G
I wake alone
     C         G
And without you
C        G
So far apart
C          G
Cross your heart
Em            D
And take me home
C              G
Wherever you are

[Bridge]
Em         D        C
Take me home wherever
    G
You are
Em
So afraid
      C
It's okay
           Em
But I can feel you slipping
D             C
More each day
     Em
It's okay
         C
Safe to say
         Em
I guess we both know that
D                     C
You weren't gonna stay

[Instrumental]
     C                 G              C               G
e|-----------------|---------------|---------------|-----------------------|
B|-------------3---|--0------------|---------------|------0----------------|
G|-------0---------|--0-----2--2---|---2---0---0---|--2--------------------|   
D|--2--------------|--0--0---------|---------------|--------------0--------|
A|--3--------------|---------------|---3-----------|----------2------------|
E|-----------------|--3------------|---------------|--3--------------------|

     C                 G              C               G
e|-----------------|---------------|---------------|-----------------------|
B|-------------3---|--0------------|---------------|-----------------------|
G|-------0---------|--0-----2--2---|---2---0---0---|--0--------------------|  
D|--2--------------|--0--0---------|---------------|------------0----------|
A|--3--------------|---------------|---3-----------|-------2---------------|
E|-----------------|--3------------|---------------|--3--------------------|

[Chorus]
D
Because
C         Em          C         G
Where we are is just where we are
C        Em      C        G
Falling farther from so far
C       Em   C        G
Underneath midnight sheets
Em
Tell me
D       C
Tell me you need me
Em
Tell me
D       C
Tell me you need me
Em
Tell me
D       C
Tell me you need me

G
Suggest correction
Creating personal tab
Creating personal tab
You can edit any tab online and save it as your Personal.

You can edit, replace or remove any tab part or add personal notes – all changes will be seen only by you.

Personal tabs can be accessed anytime from any device, even offline.
Learn more »
Give kudos to tab author, rate the tab!
1 2 3 4 5
comments
print report bad tab
guest
You may want to rate the tab now too:
select rating
Wanna post a correction for this tab? Suggest correction