Oops, an error
Loading. Please wait.

Children Of The Sun Tab

13,524 views 24 this week
6 commentsread comments
1 2 3 4 5
excellent!
x 8
add to favorites
launch autoscroll
font size
0
reset
how to read this tab
guitar tuner
Tab Pro tools
  • play this tab
  • loop segment
  • change instrument
  • show fretboard
  • metronome
×
Best way to learn
"Children Of The Sun"
Autoscroll
slow
fast
+/-
esc
set tempo
stop
Contributor
Im sure by know most of you here know the tab symbols fairly well but if not here they
this morning i got up and heard this song and decided to learn it but after looking
for a half an hour i couldnt find it anywhere so i decided to tab it. hope this helps 
some peopl enjoy it.

~ Vibrato a little
~~~ Vibrato a fair amount
b Bend
r Release
/ slide up
\ slide down
x string mute
(Pm) palm mute
1-| the number before a measure is the guitar(example. guitar 1 in the first measure)

 play this 5 times while fading in
1-|---------------------------------|-------------------------------------|
 -|---8~--x-x-x-x---7~--x-x-x-x-----|---2~--x-x-x-x---8~--x-x-x-x---------|
 -|---9~--x-x-x-x---7~--x-x-x-x-----|---2~--x-x-x-x---9~--x-x-x-x---------|
 -|---9~--x-x-x-x---7~--x-x-x-x-----|---2~--x-x-x-x---9~--x-x-x-x---------|
 -|---------------------------------|---0~--x-x-x-x-----------------------|
 -|---------------------------------|-------------------------------------|

 then play this for god knows how many times i didnt count
1-|-------x-x-x-x-------------------|---------------------x-x-x-x---------|
 -|---8---x-x-x-x---7---x-x-x-x-----|---2---x-x-x-x---8---x-x-x-x---------|
 -|---9---x-x-x-x---7---x-x-x-x-----|---2---x-x-x-x---9---x-x-x-x---------|
 -|---9---x-x-x-x---7---x-x-x-x-----|---2---x-x-x-x---9---x-x-x-x---------|
 -|---7---x-x-x-x---0---x-x-x-x-----|---0---x-x-x-x---7---x-x-x-x---------|
 -|---0---x-x-x-x-------------------|-----------------0---x-x-x-x---------|
 this comes during the lyrics once then right before the change/interlude
1-|-------x-x-x-x-------------------|-------------------------------------|
 -|---8---x-x-x-x---7---x-x-x-x-----|---2---x-x-x-x---8~~~----------------|
 -|---9---x-x-x-x---7---x-x-x-x-----|---2---x-x-x-x---9~~~----------------|
 -|---9---x-x-x-x---7---x-x-x-x-----|---2---x-x-x-x---9~~~----------------|
 -|---7---x-x-x-x---0---x-x-x-x-----|---0---x-x-x-x---7~~~----------------|
 -|---0---x-x-x-x-------------------|-----------------0-------------------|

     No more gravity,  nothing   holding   them  down
1-|----------0-------------------0--|------------3------------------------|
 -|----------0-------------------0--|------------3------------------------|
 -|----------1-------------------1--|------------0------------------------|
 -|----------2-------------------2--|------------0------------------------|
 -|----------2-------------------2--|------------2------------------------|
 -|----------0-------------------0--|------------3------------------------|

    Floating endlessly, as their ship leaves the ground
1-|----------0-------------------0--|------------3------------------------|
 -|----------0-------------------0--|------------3------------------------|
 -|----------1-------------------1--|------------0------------------------|
 -|----------2-------------------2--|------------0------------------------|
 -|----------2-------------------2--|------------2------------------------|
 -|----------0-------------------0--|------------3------------------------|

Through the walls of time at the speed of light
1-|----------0--------0----------0--|------3------------------------------|
 -|----------0--------0----------0--|------3------------------------------|
 -|----------1--------1----------1--|------0------------------------------|
 -|----------2--------2----------2--|------0------------------------------|
 -|----------2--------2----------2--|------2------------------------------|
 -|----------0--------0----------0--|------3------------------------------|

     Fly the crystal  ships on their celestial flight, on their celestial flight
1-|----------0--------0-------------|----------3--------------------------|
 -|----------0--------0-------------|----------3--------------------------|
 -|----------1--------1-------------|----------0--------------------------|
 -|----------2--------2-------------|----------0--------------------------|
 -|----------2--------2-------------|----------2--------------------------|
 -|----------0--------0-------------|----------3--------------------------|

1-|-------x-x-x-x-------------------|---------------------x-x-x-x---------|
 -|---8---x-x-x-x---7---x-x-x-x-----|---2---x-x-x-x---8---x-x-x-x---------|
 -|---9---x-x-x-x---7---x-x-x-x-----|---2---x-x-x-x---9---x-x-x-x---------|
 -|---9---x-x-x-x---7---x-x-x-x-----|---2---x-x-x-x---9---x-x-x-x---------|
 -|---7---x-x-x-x---0---x-x-x-x-----|---0---x-x-x-x---7---x-x-x-x---------|
 -|---0---x-x-x-x-------------------|-----------------0---x-x-x-x---------|
  |                                 |                                    |
2-|---------------------------------|-------------------------------------|
 -|---------------------------------|-------------------------------------|
 -|---------------------------------|-------------------------------------|
 -|---------------------------------|-------------------------------------|
 -|---------------------------------|-------------------------7-9-9b11r9--|
 -|---------------------------------|---------------------7/9-------------|

1-|-------x-x-x-x-------------------|---------------------x-x-x-x---------|
 -|---8---x-x-x-x---7---x-x-x-x-----|---2---x-x-x-x---8---x-x-x-x---------|
 -|---9---x-x-x-x---7---x-x-x-x-----|---2---x-x-x-x---9---x-x-x-x---------|
 -|---9---x-x-x-x---7---x-x-x-x-----|---2---x-x-x-x---9---x-x-x-x---------|
 -|---7---x-x-x-x---0---x-x-x-x-----|---0---x-x-x-x---7---x-x-x-x---------|
 -|---0---x-x-x-x-------------------|-----------------0---x-x-x-x---------|
  |                Children of the sun                                   |
2-|---------------------------------|-------------------------------------|
 -|---------------------------------|-------------------------------------|
 -|---------------------------------|-----------------------9-11-11b13r11-|
 -|---------------------------------|--------------------/9---------------|
 -|---7---9-7~----------------------|-------------------------------------|
 -|-----9---------------------------|-------------------------------------|

1-|---------------------------------|--------------------------------------|
 -|---------------------------------|---2-2-2-2-2--------------------------|
 -|---9-9-9-9-9-----7-7-7-7-7-------|---2-2-2-2-2-----9-9-9-9-9------------|
 -|---9-9-9-9-9-----7-7-7-7-7-------|---2-2-2-2-2-----9-9-9-9-9------------|
 -|---7-7-7-7-7-----0-0-0-0-0-------|---0-0-0-0-0-----7-7-7-7-7------------|
 -|---0-0-0-0-0---------------------|-----------------0-0-0-0-0------------|
  |                Children of the sun   Children of the sun---uu--auh- ---|
2-|---------------------------------|--------------------------------------|
 -|---------------------------------|--------------------------------------|
 -|--9----11-9~~--------------------|--------------------------------------|
 -|----11---------------------------|--------------------------------------|
 -|---------------------------------|--------------------------------------|
 -|---------------------------------|--------------------------------------|
     ---ahhh
1-|---------------------------------|-------------------------------------|
 -|---------------------------------|---2-2-2-2-2-------------------------|
 -|---9-9-9-9-9-----7-7-7-7-7-------|---2-2-2-2-2-----9-9-9-9-9-----------|
 -|---9-9-9-9-9-----7-7-7-7-7-------|---2-2-2-2-2-----9-9-9-9-9-----------|
 -|---7-7-7-7-7-----0-0-0-0-0-------|---0-0-0-0-0-----7-7-7-7-7-----------|
 -|---0-0-0-0-0---------------------|-----------------0-0-0-0-0-----------|


2-|---------------------------------|-------------------------------------|
 -|------------7b8r7b8r7------------|-------------------------------------|
 -|-----12-9~--7b8r7b8r7---5--------|-6b7r6b7r6---------------------------|
 -|---------------------------7-----|-7b8r7b8r7---5--------------5--------|
 -|---------------------------------|-----------------7------7-5---7------|
 -|---------------------------------|-------------------------------------|

2-|---------------------------------|-------------------------------------|
 -|------------7b8r7b8r7------------|-------------------------------------|
 -|------------7b8r7b8r7---5--------|-6b7r6b7r6---------------------------|
 -|---------------------------7-----|-7b8r7b8r7---5--------------5--------|
 -|---------------------------------|-----------------7------7-5---7------|
 -|---------------------------------|-------------------------------------|
  |                                 |                                    |
3-|---------------------------------|-------------------------------------|
 -|------------12-------------------|-------------------------------------|
 -|---1212-9~--14b16-12------ 12----|--12-12--------------12--------------|
 -|---------------------14~---- -14-|--------14~---12--14----14~----------|
 -|---------------------------------|-------------------------------------|
 -|---------------------------------|-------------------------------------|

2-|---------------------------------|-------------------------------------|
 -|------------7b8r7b8r7------------|-------------------------------------|
 -|----12-9----7b8r7b8r7---5--------|-6b7r6b7r6---------------------------|
 -|---------------------------7-----|-7b8r7b8r7---5--------------5--------|
 -|---------------------------------|-----------------7------7-5---7------|
 -|---------------------------------|-------------------------------------|
  |                                 |                                    |
3-|---------------------------------|---------------12--------------------|
 -|---------------------------------|---------------------------------15B-|
 -|------------9--------------------|-----------14b----14b-14b16r14-12----|
 -|------------12b14r12b14-10-------|-------------------------------------|
 -|----------------------------12---|-------------------------------------|
 -|---------------------------------|-------------------------------------|

2-|---------------------------------|-------------------------------------|
 -|--10--------7b8r7b8r7------------|-------------------------------------|
 -|----12p9----7b8r7b8r7---5--------|-6b7r6b7r6---------------------------|
 -|---------------------------7-----|-7b8r7b8r7---5-----------------------|
 -|---------------------------------|-----------------7-------------------|
 -|---------------------------------|-------------------------------------|
  |                                 |                                    |
3-|------------15b-------12h15p12---|-12----------------------------------|
 -|-15b-15-12-----------------------|-----15p12----15b~~~~~---------------|
 -|---------------------------------|-------------------------------------|
 -|---------------------------------|-------------------------------------|
 -|---------------------------------|-------------------------------------|
 -|---------------------------------|-------------------------------------|
Break here for drum and bass solo, you can tune your gutar down to drop D and play it
so ill tab it anyways as a 4th guitar.
4-|---------------------------------|----------------------|-2-|----------|
 -|---------------------------------|----------------------|- -|---9\-----|
 -|---------------------------------|----------------------|- -|---9\-----|
 -|---------------------------------|----------------------|- -|----------|
 -|---------------------------------|----------------------|- -|----------|
 -|--2-2-----0-1-2-2------0-1---2-2-|-0-1-2--2--2---0-1-2--|- -|-------0--|

2-|---------------------------------|-------------------------------------|
 -|------------7b8r7b8r7------------|-------------------------------------|
 -|-9--12-9----7b8r7b8r7---5--------|-6b7r6b7r6---------------------------|
 -|---------------------------7-----|-7b8r7b8r7---5--------------5--------|
 -|---------------------------------|-----------------7------7-5---7------|
 -|---------------------------------|-------------------------------------|

2-|------(p)------------------------|-------------------------------------|
 -|------(m)---7b8r7b8r7------------|-------------------------------------|
 -|----12-9----7b8r7b8r7---5--------|-6b7r6b7r6------------9--------------|
 -|---------------------------7-----|-7b8r7b8r7---7/12--12----------------|
 -|---------------------------------|-------------------------------------|
 -|---------------------------------|-------------------------------------|


1-|-------x-x-x-x-------------------|---------------------x-x-x-x---------|
 -|---8---x-x-x-x---7---x-x-x-x-----|---2---x-x-x-x---8---x-x-x-x---------|
 -|---9---x-x-x-x---7---x-x-x-x-----|---2---x-x-x-x---9---x-x-x-x---------|
 -|---9---x-x-x-x---7---x-x-x-x-----|---2---x-x-x-x---9---x-x-x-x---------|
 -|---7---x-x-x-x---0---x-x-x-x-----|---0---x-x-x-x---7---x-x-x-x---------|
 -|---0---x-x-x-x-------------------|-----------------0---x-x-x-x---------|
  |                                 |                                    |
2-|---------------------------------|-------------------------------------|
 -|---------------------------------|-------------------------------------|
 -|---------------------------------|-------------------------------------|
 -|---------------------------------|-------------------------------------|
 -|---------------------------------|-------------------------7-9-9b11r9--|
 -|---------------------------------|---------------------7/9-------------|

1-|-------x-x-x-x-------------------|---------------------x-x-x-x---------|
 -|---8---x-x-x-x---7---x-x-x-x-----|---2---x-x-x-x---8---x-x-x-x---------|
 -|---9---x-x-x-x---7---x-x-x-x-----|---2---x-x-x-x---9---x-x-x-x---------|
 -|---9---x-x-x-x---7---x-x-x-x-----|---2---x-x-x-x---9---x-x-x-x---------|
 -|---7---x-x-x-x---0---x-x-x-x-----|---0---x-x-x-x---7---x-x-x-x---------|
 -|---0---x-x-x-x-------------------|-----------------0---x-x-x-x---------|
  |            Children of the sun Children of the sun                   |
2-|---------------------------------|-------------------------------------|
 -|---------------------------------|-------------------------------------|
 -|---------------------------------|-----------------------9-11-11/13-11-|
 -|---------------------------------|--------------------/9---------------|
 -|---7---9b(slow)------------------|-------------------------------------|
 -|-----9---------------------------|-------------------------------------|

1-|---------------------------------|-------------------------------------|
 -|---------------------------------|---2-2-2-2-2-------------------------|
 -|---9-9-9-9-9-----7-7-7-7-7-------|---2-2-2-2-2-----9-9-9-9-9-----------|
 -|---9-9-9-9-9-----7-7-7-7-7-------|---2-2-2-2-2-----9-9-9-9-9-----------|
 -|---7-7-7-7-7-----0-0-0-0-0-------|---0-0-0-0-0-----7-7-7-7-7-----------|
 -|---0-0-0-0-0---------------------|-----------------0-0-0-0-0-----------|
  |                Children of the sun Children of the sun               |
2-|---------------------------------|-------------------------------------|
 -|---------------------------------|-------------------------------------|
 -|--9----11-9~~--------------------|-------------------------------------|
 -|----11---------------------------|-------------------------------------|
 -|---------------------------------|-------------------------------------|
 -|---------------------------------|-------------------------------------|

1-|-------x-x-x-x-------------------|---------------------x-x-x-x---------|
 -|---8---x-x-x-x---7---x-x-x-x-----|---2---x-x-x-x---8---x-x-x-x---------|
 -|---9---x-x-x-x---7---x-x-x-x-----|---2---x-x-x-x---9---x-x-x-x---------|
 -|---9---x-x-x-x---7---x-x-x-x-----|---2---x-x-x-x---9---x-x-x-x---------|
 -|---7---x-x-x-x---0---x-x-x-x-----|---0---x-x-x-x---7---x-x-x-x---------|
 -|---0---x-x-x-x-------------------|-----------------0---x-x-x-x---------|
  |            Children of the sun Children of the sun                   |

1-|-------x-x-x-x-------------------|---------------------x-x-x-x---------|
 -|---8---x-x-x-x---7---x-x-x-x-----|---2---x-x-x-x---8---x-x-x-x---------|
 -|---9---x-x-x-x---7---x-x-x-x-----|---2---x-x-x-x---9---x-x-x-x---------|
 -|---9---x-x-x-x---7---x-x-x-x-----|---2---x-x-x-x---9---x-x-x-x---------|
 -|---7---x-x-x-x---0---x-x-x-x-----|---0---x-x-x-x---7---x-x-x-x---------|
 -|---0---x-x-x-x-------------------|-----------------0---x-x-x-x---------|
  |            Children of the sun Children of the sun                   |
2-|---------------------------------|-------------------------------------|
 -|---------------------------------|-------------------------------------|
 -|---------------------------------|-----------------------9-11-11b13r11-|
 -|---------------------------------|--------------------/9---------------|
 -|---------------------------------|-------------------------------------|
 -|---------------------------------|-------------------------------------|

1-|-------x-x-x-x-------------------|---------------------x-x-x-x---------|
 -|---8---x-x-x-x---7---x-x-x-x-----|---2---x-x-x-x---8---x-x-x-x---------|
 -|---9---x-x-x-x---7---x-x-x-x-----|---2---x-x-x-x---9---x-x-x-x---------|
 -|---9---x-x-x-x---7---x-x-x-x-----|---2---x-x-x-x---9---x-x-x-x---------|
 -|---7---x-x-x-x---0---x-x-x-x-----|---0---x-x-x-x---7---x-x-x-x---------|
 -|---0---x-x-x-x-------------------|-----------------0---x-x-x-x---------|
  |            Children of the sun Children of the sun                   |
2-|---------------------------------|-------------------------------------|
 -|---------------------------------|-------------------------------------|
 -|-9-11-11b13~r11b13~r11b13~---11--|---9---------------------------------|
 -|---------------------------------|-------------------------------------|
 -|---------------------------------|-------------------------------------|
 -|---------------------------------|-------------------------------------|

1-|-------x-x-x-x-------------------|---------------------x-x-x-x---------|
 -|---8---x-x-x-x---7---x-x-x-x-----|---2---x-x-x-x---8---x-x-x-x---------|
 -|---9---x-x-x-x---7---x-x-x-x-----|---2---x-x-x-x---9---x-x-x-x---------|
 -|---9---x-x-x-x---7---x-x-x-x-----|---2---x-x-x-x---9---x-x-x-x---------|
 -|---7---x-x-x-x---0---x-x-x-x-----|---0---x-x-x-x---7---x-x-x-x---------|
 -|---0---x-x-x-x-------------------|-----------------0---x-x-x-x---------|
  |            Children of the sun Children of the sun                   |
2-|---------------------------------|-------------------------------------|
 -|---------------------------------|-------------------------------------|
 -|---------------------------------|-----------------------9-11-11b13r11-|
 -|---------------------------------|--------------------/9---------------|
 -|---------------------------------|-------------------------------------|
 -|---------------------------------|-------------------------------------|

1-|-------x-x-x-x-------------------|---------------------x-x-x-x---------|
 -|---8---x-x-x-x---7---x-x-x-x-----|---2---x-x-x-x---8---x-x-x-x---------|
 -|---9---x-x-x-x---7---x-x-x-x-----|---2---x-x-x-x---9---x-x-x-x---------|
 -|---9---x-x-x-x---7---x-x-x-x-----|---2---x-x-x-x---9---x-x-x-x---------|
 -|---7---x-x-x-x---0---x-x-x-x-----|---0---x-x-x-x---7---x-x-x-x---------|
 -|---0---x-x-x-x-------------------|-----------------0---x-x-x-x---------|
  |            Children of the sun Children of the sun (echos and fades) |
2-|---------------------------------|-------------------------------------|
 -|---------------------------------|-------------------------------------|
 -|-9----11-9~~~--------------------|-------------------------------------|
 -|---11----------------------------|-------------------------------------|
 -|---------------------------------|-------------------------------------|
 -|---------------------------------|-------------------------------------|
comments
print report bad tab
6 comments total. Showing first comments.
0 reply
blackriderrom wrote on July 24 2007, 02:03 pm

Awesome. I love it.

0 reply
chuk1023 wrote on October 2 2007, 12:33 am

Nice work, wow , what an addictive rhythm 8>)

+1 reply
JIMMY PAGEII wrote on December 16 2007, 07:25 pm

Remarkable effort, for what ever it's worth THANK YOU! I play it using mild distortion coulpled with a phaze shifter and
it sounds dynamite. JP

I want to post or [tab]
guest
You may want to rate the tab now too:
select rating
Please do not post tabs as comments. Select "correction" instead!