Oops, an error
Loading. Please wait.

Ill Be Home For Christmas bass

247 views 1 this week
no commentswrite comment
1 2 3 4 5
2 more votes to show rating
add to favorites
×
Save as Personal and add changes to this tab that will be seen only by you. Learn more ›
×
You can save this tab as Personal to edit and correct it or add notes. All changes will be seen only by you. Learn more »
launch autoscroll
font size
0
reset
guitar tuner
edit
Autoscroll
slow
fast
+/-
esc
set tempo
stop
Author
---------------------------------------------------------------------
             I'll Be Home for Christmas - Bing Crosby
---------------------------------------------------------------------
Tabbed by: RagnaarMN
Tuning: Standard

G|----------------|
D|----------------|
A|----------------|
E|------------3---|

G|----------------|----------------|------------2---|0---------------|
D|------------2---|1-----------1---|0---------------|----------------|
A|3---------------|----------------|----------------|----------------|
E|----------------|----------------|----------------|----------------|
  I'll        be   home        for  Christmas

G|----------------|0-------2-------|----------------|----------------|
D|------------2---|----------------|0---------------|--------2-------|
A|3---------------|----------------|----------------|----------------|
E|----------------|----------------|----------------|----------------|
  You         can  plan        on   me

G|----------------|0---------------|----------------|3---------------|
D|3---------------|----------------|----------------|----------------|
A|----------------|----------------|3---------------|----------------|
E|----------------|----------------|----------------|----------------|
  Please      have snow        and  mis          tle-toe         And

G|----------------|----------------|0---------------|----------------|
D|0---------------|----------------|----------------|----------------|
A|----------------|----------------|----------------|----------------|
E|----------------|----------------|----------------|----------------|
  pres   -ents     on          the  tree

G|----------------|----------------|------------2---|0---------------|
D|------------2---|1-----------1---|0---------------|----------------|
A|3---------------|----------------|----------------|----------------|
E|----------------|----------------|----------------|----------------|
  Christ      -mas Eve         will find

G|----------------|0-------3-------|----------------|----------------|
D|----------------|----------------|0---------------|----------------|
A|3---------------|----------------|----------------|----------------|
E|----------------|----------------|----------------|----------------|
  Where       the  love        ligh gleams

G|----------------|----------------|----------------|----------------|
D|----------------|----------------|----------------|----------------|
A|----------------|----------------|----3---2---1---|0---------------|
E|1---------------|1---------------|3---------------|----------------|
  I'll        be   home        for  Christ           mas         If

                                    Y                Z
G|----------------|----------------|----------------|----------------|
D|----0-------0---|----0-------0---|----------------|----------------|
A|----------------|----------------|3---------------|----------------|
E|----------------|----------------|----------------|----------------|
  on      -ly      in      my       dreams  

  Ending:
G|----------------|----------------|
D|----------------|----------------|
A|3-------4-------|2---2-----------|
E|----------------|----------------|

2nd time, skip bars Y and Z and go to the Ending. 
======================================================================

            
            
Suggest correction
Creating personal tab
Creating personal tab
You can edit any tab online and save it as your Personal.

You can edit, replace or remove any tab part or add personal notes – all changes will be seen only by you.

Personal tabs can be accessed anytime from any device, even offline.
Learn more »
Give kudos to tab author, rate the tab!
1 2 3 4 5
comments
print report bad tab
guest
You may want to rate the tab now too:
select rating
Wanna post a correction for this tab? Suggest correction