Oops, an error
Loading. Please wait.

White Christmas Tab

version 1
version 1

Whole song

Interactive

50,271 views 45 this week
2 commentsread comments
1 2 3 4 5
x 10
add to favorites
launch autoscroll
font size
0
reset
how to read this tab
guitar tuner
Autoscroll
slow
fast
+/-
esc
set tempo
stop
Help us to improve Ultimate-Guitar.com Take our survey!
×
Author
	WHITE CHRISTMAS  by IRVING BERLIN

	STANDARD TUNING EADGBE

	SORRY NO TIME SIGNATURES

	I HAVE INCLUDED THE FIRST LETTER OF THE LYRICS TO GIVE
	AN IDEA OF THE TIME, I PLAY THIS WITH A FEW MORE FILL
	NOTES BUT DID NOT PUT THEM DOWN, PLEASE FILL FREE TO
	ADD YOUR OWN.
	ALSO I PLAY THIS SONG WITH FINGERING
	THAT IS ALL CHORD BASED, G C Am D Em Cm.

	IF I MADE A MISTAKE ON THE FIRST LETTER OF A LYRIC,
	THAT WOULD NOT SURPRISE ME AS I AM TERRIBLE WITH WORDS.


	 I  D     O A W C         J L T O I U T K

	--------------------------0-2-3-5-3-2-0----3-------|
	-0--0h1p0---0-1-2-3--2-1----------------3----3-----|
	----------2---------------0-2-4-5-4-2-0--------0---|
	----0h2p0--------------0---------------------------|
	--------------3-1-2--1-----------------------------|
	-3--------------------------------------3----------|

         W T S   G A C   L     T H       S B I T S
	-----------0-----------------------------------0---|
	-----0-0-0---3-------3-1-0-------1h0---------2---3-|
	-0-2-----------0-0-0-------0---0-----2-0-2-2-----2-|
	-----------------------------0---3h0-----2-------0-|
	---------------3-2-0-------------------------------|
	-----3-2-0---------------3-------------------------|

         I  D     0 A W C

	--------------------------0-2-3-5-3-2-0-----3------|
	-0--0h1p0---0-1-2-3--2-1----------------3-----3----|
	----------2---------------0-2-4-5-4-2-0---0-----0--|
	----0h2p0--------------0---------------------------|
	--------------3-1-2--1-----------------------------|
	-3--------------------------------------3----------|


                     A  B              A M A Y C     B B

    -----------0----3--3-------3-----------0-------------|
    -----0-0-0---3--1----1---1-4-------0-0-------------0-|
    -0-2------------0------0---5---0-2-------0-0---0--0--|
    ----------------2----------5-----------------4---0---|
    ----------------3----------3-------------------------|
    -----3-2-0------X----------3-------3-2-0-------3-----|


	-------------------------------------------------------0-3-|
	-1-------3--------1--------0-0-0--0-0-0--0-3---------1---0-|
	-0-0---0-0--0---0-0-0---0--------------------0-2-0-------0-|
	-3---3---5----5---3---3----------------------------2-----0-|
	-0-------0--------0------------------------------3-------2-|
	---------------------------3-3-3--2-2-2--0---------------3-|
Suggest correction
comments
print report bad tab
2 comments total.
+1 reply
kkkk 21 Dec 24, 2009 11:36 AM

whew! awesome job dude! you know what your doin'!

0 reply
Jmoarguitar 239 Dec 21, 2013 12:32 PM

I can dig it, drives me nuts when you see tabs that just have the melody on one string or just the open chords behind the lyrics. This is the stuff I'm lookin for!

guest
You may want to rate the tab now too:
select rating
Wanna post a correction for this tab? Suggest correction