Oops, an error
Loading. Please wait.

Get Up Rattle Tab

4,065 views 1 this week
1 commentread comment
1 2 3 4 5
x 3
add to favorites
launch autoscroll
font size
0
reset
how to read this tab
guitar tuner
Autoscroll
slow
fast
+/-
esc
set tempo
stop
Help us to improve Ultimate-Guitar.com Take our survey!
×
Author
Difficulty
novice
This is the tab for the main riff of the song, hope it helps!

e|-------------------------------------------------------------------------|
B|------------------------------------------------------------------- -----|
G|-------------------------------------------------------------------------|
D|-------------------------------------------------------------------------|
A|---------3-----1----------------1---------------1---3-------3-3----------|
E|----1----------------4-------4--------3----3-----------------------4-----|


e|-------------------------------------------------------------------------|
B|------------------------------------------------------------------- -----|
G|-------------------------------------------------------------------------|
D|-------------------------------------------------------------------------|
A|---------3-----1----------------1---------------1---3-------3-3----------|
E|----1----------------4-------4--------3----3-----------------------4-----|


THIS PART REPEATS ITSELF OVER AND OVER

FOR THE BUILD JUST PLAY IT GETTING GRADUALLY LOUDER

CHORUS:

e|--------------------------------------------------------------------|
B|--------------------------------------------------------------------|
G|--------------------------------------------------------------------|
D|--------------------------------------------------------------------|
A|--------------------------------------------------1-3----3-3--------|
E|---1-1-1-1--2--1--1-1-1-1-3-2--1--1-1-1-1--2--1--4-----------4------|

BACK TO INTRO
Suggest correction
Give kudos to tab author, rate the tab!
1 2 3 4 5
comments
print report bad tab
1 comment total.
0 reply
biccarinosam 52 May 01, 2013 11:21 AM

Transpose the main riff up a couple of octaves and it's perfect!

guest
You may want to rate the tab now too:
select rating
Wanna post a correction for this tab? Suggest correction