Oops, an error
Loading. Please wait.

Rattle Tab

version 1
version 1

Whole song

Interactive

6,772 views 6 this week
2 commentsread comments
1 2 3 4 5
3 more votes to show rating
add to favorites
launch autoscroll
font size
0
reset
how to read this tab
guitar tuner
×
Best way to learn
"Rattle"
Autoscroll
slow
fast
+/-
esc
set tempo
stop
Author
Difficulty
  follow
novice
e|---------------------------------------------------------------------------|
B|---------------------------------------------------------------------------|
G|---------------------------------------------------------------------------|
D|---------------------------------------------------------------------------|
A|------3-1---------1---------1---3------------------------------------------|
E|---1-------4---4-----3---4-------------------------------------------------|

http://www.bingoplayersmusic.com/
Suggest correction
Give kudos to tab author, rate the tab!
1 2 3 4 5
comments
print report bad tab
2 comments total.
0 reply
Eindbaas 10 Aug 17, 2012 05:54 AM

My man! Love this song! But correct me if im wrong
A|------3-1---------1---------1---3--3-3----------------------
E|---1-------4---4-----3---4------------4---------------------

Peace!

0 reply
fleet13 468 Aug 30, 2012 11:11 PM

yeah i forgot this last part! Thanks mate!

guest
You may want to rate the tab now too:
select rating
Wanna post a correction for this tab? Suggest correction