Oops, an error
Loading. Please wait.

Deep tab

version 1
version 1

Whole song

Interactive

23,368 views 51 this week
no commentswrite comment
1 2 3 4 5
x 3
add to favorites
×
Save as Personal and add changes to this tab that will be seen only by you. Learn more ›
×
You can save this tab as Personal to edit and correct it or add notes. All changes will be seen only by you. Learn more »
launch autoscroll
font size
0
reset
how to read this tab
guitar tuner
edit
Autoscroll
slow
fast
+/-
esc
set tempo
stop
Deep - Binoculars
Tuning: CAPO II

[TAB 1](Intro,Verse 1&2, and Chorus)
e|-------2-----|------2-----|-----0-----|-----2------|
B|---------3---|--------3---|-------3---|-------3----|
G|-----------0-|----------0-|---------0-|---0-----0--|
D|-------------|------------|---0-------|-0----------|
A|-----0-------|----0-------|-2---------|------------|
E|---3---------|--0---------|-----------|------------|
    Pattern1     Pattern2      Pattern3    Pattern4

[Verse 1]
So this is what you mean
and this is how you feel
so this is how you see
and this is how you breathe

 [Refrain]
 [TAB 2] Distortion
e|-------2----------|-------2--------------|
B|-----------3------|-----------3----------|
G|----0--------0----|-----0-------0--------|
D|------------------|----------------------|
A|------------------|----------------------|
E|------------------|----------------------|
 Em        C
Sometimes, I know
 Em        C (Let ring)
Sometimes, I go down deep...

[Chorus]
{{Lead does TAB 1 with Distortion}}
G    Em   C    D
     Ooh, Ooh, ohooh uooh...

[Verse 2] [TAB 1]
Repeat lyrics of Verse 1

 [Refrain]
 [TAB 2] Distortion
e|-------2----------|-------2--------------|
B|-----------3------|-----------3----------|
G|----0--------0----|-----0-------0--------|
D|------------------|----------------------|
A|------------------|----------------------|
E|------------------|----------------------|
 Em        C
Sometimes, I know
 Em        C (Let ring)
Sometimes, I go down deep...

[Chorus]
{{Lead does TAB 1 with Distortion}}
G    Em   C    D
     Ooh, Ooh, ohooh uooh...

[Verse 3][TAB 1]
Beneath the deep blue sea
touching every Breathe
All the slight of hand
For everything you've left

 [Refrain]
 [TAB 2] Distortion
e|-------2----------|-------2--------------|
B|-----------3------|-----------3----------|
G|----0--------0----|-----0-------0--------|
D|------------------|----------------------|
A|------------------|----------------------|
E|------------------|----------------------|
 Em        C
Sometimes, I know
 Em        C (Let ring)
Sometimes, I go down deep...

[Chorus]
{{Lead does TAB 1 with Distortion}}
G    Em   C    D
     Ooh, Ooh, ohooh uooh...

I Go down deep...

[TAB 3] (Guitar Solo(Lead): with Distortion)
e|-----2-------------------------2----------------------|
B|-------3-------------------------3--------------------|
G|---0-----0---2-4/5-5-4-4-2---0-----0------------------|
D|---------------------------------------0-2/4-4-2-2-0--|
A|------------------------------------------------------|
E|------------------------------------------------------|
(On the Solo, Rythm Guitar palys Refrain Chords)

[Refrain 2] same tabs, same chords
Sometimes, I give myself for you
Sometimes, I Know Down Deep...

[Guitar solo] Guitar 1
Play [TAB 1] once, then play [TAB 1[ the second time
with Guitar 2 on distortion Playing [TAB 1]

[Chorus]
{{Lead does TAB 1 with Distortion}}
G    Em   C    D
     Ooh, Ooh, ohooh uooh...

************************************

| /  Slide up

************************************

            
            
Suggest correction
Creating personal tab
Creating personal tab
You can edit any tab online and save it as your Personal.

You can edit, replace or remove any tab part or add personal notes – all changes will be seen only by you.

Personal tabs can be accessed anytime from any device, even offline.
Learn more »
Give kudos to tab author, rate the tab!
1 2 3 4 5
comments
print report bad tab
guest
Wanna post a correction for this tab? Suggest correction