Oops, an error
Loading. Please wait.

Mistaken Identity bass

version 1
version 1

Whole song

Interactive

240 views 1 this week
no commentswrite comment
1 2 3 4 5
3 more votes to show rating
add to favorites
×
Save as Personal and add changes to this tab that will be seen only by you. Learn more ›
×
You can save this tab as Personal to edit and correct it or add notes. All changes will be seen only by you. Learn more »
launch autoscroll
font size
0
reset
guitar tuner
edit
Autoscroll
slow
fast
+/-
esc
set tempo
stop
Author
part1
F--------------------------|I
C--------------------------|I
G--------------------------|I
C-00005-0004-3-00005-0004--|I

part2
F----
C----
G----
C-2~- ~ let ring

part3
F---------------------------------------------------------------------------->>
C-----------44-4-44-4-----------------------------44-4-44-4---------------33->>
G-22-2-22-2-----------55-5-55-5-000-333-22-2-22-2-----------55-5-55-5-000---->>
C---------------------------------------------------------------------------->>

F----------------------------------------------------------------------------|
C-----------44-4-44-4-----------------------------44-4-44-4---------------44-|
G-22-2-22-2-----------55-5-55-5-000-333-22-2-22-2-----------55-5-55-5-000----|
C----------------------------------------------------------------------------|

part4
F----------------------------------------------------------------->>
C---------4444-44-------------------------4444-44-------------444->>
G-2222-22---------5555-55-000-333-2222-22---------5555-55-000----->>
C----------------------------------------------------------------->>

F----------------------------------------------------------------|
C---------4444-44-------------------------4444-44-------------44-|
G-2222-22---------5555-55-000-333-2222-22---------5555-55-000----|
C----------------------------------------------------------------|

part5
F---------------------------------------------------------------------------->>
C-----------44-4-44-4-----------------------------44-4-44-4---------------33->>
G-22-2-22-2-----------55-5-55-5-000-333-22-2-22-2-----------55-5-55-5-000---->>
C---------------------------------------------------------------------------->>

F----------------------------------------------------------------------------|
C-----------44-4-44-4-----------------------------44-4-44-4------------------|
G-22-2-22-2-----------55-5-55-5-000-333-22-2-22-2-----------55-55-0000-0000--|
C----------------------------------------------------------------------------|

part6
F-------------------------------------------|
C----------------------222-----555-444------|
G--------------------------444---------5555-|
C-555-888-777-000-2555----------------------|

part7
F-----------------------------------------|
C----------------------222-----555-444----|
G--------------------------444---------55-|
C-555-888-777-000-2555--------------------|

ORDER:
part1 10x
part2 1x
part3 1x
part4 1x
part1 2x
part3 1x
part4 1x
part1 6x
part5 1x
part6 9x
part7 1x

i guess thats the way it goes.. have fun..
  xxSID

            
            
Suggest correction
Creating personal tab
Creating personal tab
You can edit any tab online and save it as your Personal.

You can edit, replace or remove any tab part or add personal notes – all changes will be seen only by you.

Personal tabs can be accessed anytime from any device, even offline.
Learn more »
Give kudos to tab author, rate the tab!
1 2 3 4 5
comments
print report bad tab
guest
You may want to rate the tab now too:
select rating
Wanna post a correction for this tab? Suggest correction