Oops, an error
Loading. Please wait.

Damaged Goods Tab

909 views 1 this week
1 commentread comment
1 2 3 4 5
please rate
add to favorites
launch autoscroll
font size
0
reset
how to read this tab
guitar tuner
Autoscroll
slow
fast
+/-
esc
set tempo
stop
Help us to improve Ultimate-Guitar.com Take our survey!
×
Author
Difficulty
novice
Biology - Damaged Goods
its about 95% correct. any corrections tell me. and also tab more biology songs people, 
love them and theres not any tabs at all for them.

intro:
e|------------------------------------------------|
B|------------------------------------------------|
G|--------------------0---------------------------|
D|--------0-------4-----4-0---2-----2------4p0-0--|
A|-0/2--2---0-0---5-5-------0-0---0---0--2--------|
E|--------------------------------------3---------|

e|------------------------------------------------|
B|------------------------------------------------|
G|--------------------0---------------------------|
D|--------0-------4-----4-0---2-----2------0--0---|
A|-0/2--2---0-0---5-5-------0-0---0---0-----------|
E|--------------------------------------3-3--3----|


verse:
e|---------------------|
B|---------------------|
G|---------------------|
D|-0---0-4---2--2--2---|
A|-2-----5---0---0-3---|
E|---------------------|

e|---------------------------|
B|---------------------------|
G|-----------0---------------|
D|-0---0-4-----4-0---2-------|
A|-2-----5-5---------0--0--2-|
E|-------------------------3-|

e|------------------|
B|------------------|
G|------------------|
D|-0---4---2---2----|
A|-2---5---0-0--0-2-|
E|----------------3-|

e|---------------------------|
B|---------------------------|
G|-----------0---------------|
D|-0-----4-----4-0---2--2----|
A|-2-----5-----------0-----2-|
E|-------------------------3-|

pre chorus:
e|-------------------------|
B|-------------------------|
G|-------------------------|
D|-22-2---2---2------------|   x2
A|-00---0---0---0-22222222-|
E|----------------33333333-|

chorus:
e|---------------|
B|---------------|
G|---------------|
D|---4>----------|  x
A|---5>----2>----|
E|---------3>----|

e|-------------------|
B|-------------------|
G|-------------------|
D|---4>----------2>--|
A|---5>----2>----0>--|
E|---------3>--------|

verse 2
e|---------------|
B|---------------|
G|---------------|
D|--0--4--2------|
A|--2--5--0--2---|
E|-----------3---|

pre chorus

chorus x8
bridge (same as chorus) x4

outro:
e|---------------------------|
B|---------------------------|
G|---------------------------|
D|--2>-----------------------|
A|--0>--2>-------------------|
E|------3>-------------------|

biologymusic.com
Suggest correction
Give kudos to tab author, rate the tab!
1 2 3 4 5
comments
print report bad tab
1 comment total.
0 reply
sdf5150 10 wrote on June 11 2013, 10:46 am

Good tab man. I like it!

guest
You may want to rate the tab now too:
select rating
Wanna post a correction for this tab? Suggest correction