Oops, an error
Loading. Please wait.

As I Bleed intro tab

by Bipolar
373 views 3 this week
1 commentread comment
1 2 3 4 5
1 last vote to show rating
add to favorites
×
Save as Personal and add changes to this tab that will be seen only by you. Learn more ›
×
You can save this tab as Personal to edit and correct it or add notes. All changes will be seen only by you. Learn more »
launch autoscroll
font size
0
reset
how to read this tab
guitar tuner
edit
Autoscroll
slow
fast
+/-
esc
set tempo
stop
Author
Difficulty
well this is my first tab so cut me some slack... 

hope its right ... please tell me if im wrong

have fun...

   E E E E E E  E E   E  E  E E  SSE E E
D|------------------|---------------------|
A|------------------|---------------------|
F|------------------|---------------------|
C|------------------|---------------------|
G|-----9---9-10-----|-12-10-9-10-----9-10-|
D|-0-0---0------0-0-|------------000------|

   E E Q   Q    E E   Q     Q    E E+Q
D|------------------|---------------------|
A|------------------|---------------------|
F|------------------|---------------------|
C|------------------|---------------------|
G|-----9---9--------|-9-----9----9-10*----|
D|-0-0----------0-0-|---------------------|

E=eight note
S=sixteenth note
*=pinch/artificial harmonic

malakian19

http://www.bipolarmusic.com/

            
            
Suggest correction
Creating personal tab
Creating personal tab
You can edit any tab online and save it as your Personal.

You can edit, replace or remove any tab part or add personal notes – all changes will be seen only by you.

Personal tabs can be accessed anytime from any device, even offline.
Learn more »
Give kudos to tab author, rate the tab!
1 2 3 4 5
comments
print report bad tab
1 comment total.
0 reply
Zakai 10 May 30, 2007 04:02 PM

Right idea except you're missing a few of the faster notes.
E E E E E E E E E E E E SSE E E
D|------------------|----------------------|
A|------------------|----------------------|
F|------------------|----------------------|
C|------------------|----------------------|
G|-----9---9-10-----|-12-10-9h10p9---------|
D|-0-0---0------0-0-|----------------------|

E E Q Q E E Q Q E E+Q
D|------------------|---------------------|
A|------------------|---------------------|
F|------------------|---------------------|
C|------------------|-99----99------------|
G|--------9h10------|-99----99-----10*----|
D|-10-10--------0-0-|-99----99------------|

guest
You may want to rate the tab now too:
select rating
Wanna post a correction for this tab? Suggest correction