Oops, an error
Loading. Please wait.

Mann tab

4,864 views 51 this week
no commentswrite comment
1 2 3 4 5
x 3
add to favorites
×
Save as Personal and add changes to this tab that will be seen only by you. Learn more ›
×
You can save this tab as Personal to edit and correct it or add notes. All changes will be seen only by you. Learn more »
launch autoscroll
font size
0
reset
how to read this tab
guitar tuner
edit
Autoscroll
slow
fast
+/-
esc
set tempo
stop
-------------------------------------------------------------------------------
                             Mann - Bipul Chettri
------------------------------------------------------------------------------- 

Tuning: Standard tuning with capo on 3rd fret (tabs relative to capo)

               **************(Intro)***************
e|--------------------------------------------------------------------------|
B|--------------------------------------------------------------------------|
G|-------0----0h2/4-0--------0-----2-0--------------------------------------|
D|--0---2---------------0---2-----------------------------------------------|
A|--------------------------------------------------------------------------|
E|--3-------3-----------3-------3-------------------------------------------| 
  khola    bagyoooo      salala
  farki  na auneeee     yo paala    aha (follow below)

e|---------------------------|-----------------------------------------------|
B|---------------------------|-----------------------------------------------|
G|-------0---0---0---------0-|--------0---0h2/4-0--------0-----2-0-----------|
D|--2---2---2---2----0-0h2---|--0---2---------------0---2--------------------|
A|--3----------------3-------|-----------------------------------------------|
E|---------------------------|--3-------3-----------3-------3----------------|
   haiiii.........   yo    pa....la....... (Repeat)


               **************(Chorus)***************
e|--------------------------------------------------------------------------|
B|--------------------------------------------------------------------------|
G|-------0----0h2/4-0--------0---2-0-2-0------------------------------------|
D|--0---2---------------0---2-----------------------------------------------|
A|--------------------------------------------------------------------------|
E|--3-------3-----------3---------------------------------------------------|

e|-------------------------|------------------------------------------------|
B|--------3-------------3--|--------3-------3-------------------------------|
G|-------2-2-----------2-2-|------0--------0--------------------------------|
D|----0------------0-------|----2--------2----------------------------------|
A|-------------------------|---0--------3-----------------------------------|
E|-------------------------|------------------------------------------------|
    rituharu       yaha       badaliye chaa
e|-------------------------|------------------------------------------------|
B|--------3-------------3--|--------1-------1-------------------------------|
G|-------2-2-----------2-2-|------0--------0--------------------------------|
D|---0-------------0-------|----2--------2----------------------------------|
A|-------------------------|---0--------3-----------------------------------|
E|-------------------------|------------------------------------------------|
    samai          pani       badaliye chaa
e|-------------------------|------------------------------------------------|
B|--------3-------------3--|--------3-------3-------------------------------|
G|-------2-2-----------2-2-|------0--------0--------------------------------|
D|---0-------------0-------|----2--------2----------------------------------|
A|-------------------------|---0--------3-----------------------------------|
E|-------------------------|------------------------------------------------|
    geetharu       yaha      bahadilye chaa tara

e|--------------------------------------------------------------------------|
B|-----1--------1-----------------------------------------------------------|
G|----2-2------2-2----0-0-------------0-------------------------------------|
D|--3--------3--------2-2------0-0-0h2--------------------------------------|
A|--------------------3-3---------------------------------------------------|
E|--------------------------------------------------------------------------|
     mana     mero    kaile   ni badaliye na(start again from intro)


                 **************(Bridge)***************
e|--------------------------------------------------------------------------|
B|--------------------------------------------------------------------------|
G|-------0----0h2/4-0--------0----------------------------------------------|
D|--0---2---------------0---2--------0-----0--------------------------------|
A|--------------------------------------------------------------------------|
E|--3-------3-----------3---------3-----2-----------------------------------|

e|---------|     
B|---------|
G|--0------| * 8
D|--2------|
A|---------|
E|--0------| 
 aja samma....

e|--------------------------------------------------------------------------|
B|---2---2---2---2---2------2-----------------------------------------------|
G|---0---0---0---0---0------------0-----0-----------------------------------|
D|--------------------------------------------------------------------------|
A|---0---0---0---0---0---0--------------------------------------------------|
E|-----------------------------3-----2--------------------------------------| 
 timrainai yaadaharu....

e|---------|
B|---------|
G|--0------| * 8
D|--2------|
A|---------|
E|--0------| 
 yobanako......

e|--------------------------------------------------------------------------|
B|---3---3---3---3---3------------------------------------------------------|
G|---2---2---2---2---2-----2------------------------------------------------|
D|---0---0---0---0---0---0--------0-----0-----------------------------------|
A|--------------------------------------------------------------------------|
E|-----------------------------3-----2--------------------------------------| 
 aja ragata.....

e|---------|
B|---------|
G|--0------| * 8
D|--2------|
A|---------|
E|--0------| 
 aja samma....

e|--------------------------------------------------------------------------|
B|---2---2---2---2---2------2-----------------------------------------------|
G|---0---0---0---0---0------------0-----0-----------------------------------|
D|--------------------------------------------------------------------------|
A|---0---0---0---0---0---0--------------------------------------------------|
E|-----------------------------3-----2--------------------------------------| 
 jindagima....

e|---------|
B|---------|
G|--0------| * 8
D|--2------|
A|---------|
E|--0------| 
 herda herdai....

e|--------------------------------------------------------------------------|
B|---3---3---3---3---3---3---3---3---------3--------------------------------|
G|---2---2---2---2---2---2---2---2-------0---0-------------0----------------|
D|---0---0---0---0---0---0---0---0-----0-------0-0--0--0h2------------------|
A|-----------------------------------3-----------3--------------------------|
E|--------------------------------------------------------------------------| 
 bitisakecha.....

e|--------------------------------------------------------------------------|
B|--------------------------------------------------------------------------|
G|--------0-----2-0---4p0--2p0----------------------------------------------|
D|---0--2-----------------------4p0--2p0------------------------------------|
A|----------------------------------------3p0--2p0--------------------------|
E|---3-------3--------------------------------------------------------------| 
 
 (Repeat Intro).....


                   **************(Outro)***************
e|----------------------------------------------------------------------------|
B|---------------------------------------------1--------1---------------------|
G|-------0----0h2/4-0--------0-------2-0-----2---2----2---2----------------0--|*2(twice)
D|--0---2---------------0---2--------------3--------3---------2-2--0-0-0h2----|
A|------------------------------------------------------------3-3-------------|
E|--3-------3-----------3---------3-------------------------------------------|

e|--------------------------------------------------------------------------|
B|-------------------------------0------------------------------------------|
G|-------0----0h2/4-0--------0---0----0-0h2-0--0----------------------------|
D|--0---2---------------0---2---------0-0---0--0----------------------------|
A|--------------------------------------------------------------------------|
E|--3-------3-----------3--------3-------------3----------------------------|



**************(Lyrics)***************
khola bagyo salala, farkina aune yo paala ah hai
yo pala
pauneta yaha kati-kati, napaune yaha pirati ah hai 
pirati

rituharu yaha badaliye cha, samai pani badaliye cha
geetharu yaha bahadilye cha tara
mana mero kaile ni badaliye na

chatiko piralai chodideu, manako dhokalai kholideu ah hai
kholideu
khusile nachauhai hamisara, jagmagayo yaha junatara ah hai
jhunatara

yugharu yaha dhalecha, dinapani dhalecha
yobana yaha dhalera tara
mana mero khailenai dhaldaina

aja samma audacha timronai yadharu
yobanako bagecha aja ragataharu
aja samma lagcha jindagima kehi adhuro
herda herdai bitisakecha jiwanamero
jiwana mero

jeunechu mata mana kholera, ladhepachi lanukecha bokera ah hai
bokera

yugharu yaha dhalecha, dinapani dhalecha
yobana yaha dhalera tara
mana mero khailenai dhaldaina
mana mero khailenai dhaldaina
mana mero khailenai dhaldaina

************************************

| /   slide up
| h   hammer-on
| p   pull-off
************************************

Please rate comment :)

            
            
Suggest correction
Creating personal tab
Creating personal tab
You can edit any tab online and save it as your Personal.

You can edit, replace or remove any tab part or add personal notes – all changes will be seen only by you.

Personal tabs can be accessed anytime from any device, even offline.
Learn more »
Give kudos to tab author, rate the tab!
1 2 3 4 5
comments
print report bad tab
guest
You may want to rate the tab now too:
select rating
Wanna post a correction for this tab? Suggest correction