Oops, an error
Loading. Please wait.

Ram Sailee - Ode To My Father tab

7,120 views 81 this week
no commentswrite comment
1 2 3 4 5
x 4
add to favorites
×
Save as Personal and add changes to this tab that will be seen only by you. Learn more ›
×
You can save this tab as Personal to edit and correct it or add notes. All changes will be seen only by you. Learn more »
launch autoscroll
font size
0
reset
how to read this tab
guitar tuner
edit
Autoscroll
slow
fast
+/-
esc
set tempo
stop
Ram Sailee (Ode to my Father) - Bipul Chettri
Tabbed by: Sagar Shakya
E-mail: sagarshakya@outlook.com
Standard tuning, Capo on 1st fret.
Chords used: G, C, Cadd9, Em, D

[INTRO]
E|-----------3--------3--|--------------0h2--------|-----------------|----------------------|
B|--------3-----3--------|--------3----------3-----|-----------0-----|----------------1-----|
G|-----0-----------0-----|-----2-----2----------2--|--------0-----0--|-------------0--------|
D|-----------------------|--0----------------------|-----2-----------|-----2--0h2--------0--|
A|-----------------------|-------------------------|--2--------------|--3-------------------|
E|--3--------------------|-------------------------|-----------------|----------------------|

E|-----------3--------3--|-----------2--3--|--------------|-----------|--------------|
B|--------3-----3--------|--------3--------|-----------3--|-----------|-----------3--|
G|-----0-----------0-----|-----2-----------|--------0-----|--------0--|--------0-----|
D|-----------------------|--0--------------|-----0--------|-----2-----|-----0--------|
A|-----------------------|-----------------|--------------|--3--------|--------------|
E|--3--------------------|-----------------|--3-----------|-----------|--3-----------|

Ram sailee...
E|-----------3--------3--|--------------0h2--------|-------------------------|
B|--------3-----3--------|--------3----------3-----|--------------0--------0-|
G|-----0-----------0-----|-----2-----2----------2--|--------0--------0-------|
D|-----------------------|--0----------------------|-----2-----2--------2----|
A|-----------------------|-------------------------|--2----------------------|
E|--3--------------------|-------------------------|-------------------------|

E|--------------------------|
B|--------------1--------0--|
G|--------0--------0--------|
D|-----2-----2--------2-----|
A|--3-----------------------|
E|--------------------------|

E|-----------3--------3--|-----------2--3--|--------------------------|--------------|
B|--------3-----3--------|--------3--------|--------------3--------3--|-----------3--|
G|-----0-----------0-----|-----2-----------|--------0--------0--------|--------0-----|
D|-----------------------|--0--------------|-----2-----2--------2-----|-----0--------|
A|-----------------------|-----------------|--3-----------------------|--------------|
E|--3--------------------|-----------------|--------------------------|--3-----------|

Ram sailee...
E|-----------3--------3--|--------------0h2--------|-------------------------|
B|--------3-----3--------|--------3----------3-----|--------------0--------0-|
G|-----0-----------0-----|-----2-----2----------2--|--------0--------0-------|
D|-----------------------|--0----------------------|-----2-----2--------2----|
A|-----------------------|-------------------------|--2----------------------|
E|--3--------------------|-------------------------|-------------------------|

E|----------------------------|
B|--------------1--3--1--0----|
G|--------0-------------------|
D|-----2-----2----------------|
A|--3-------------------------|
E|----------------------------|

E|-----------3--------3--|-----------2--3--|--------------------------|--------------|
B|--------3-----3--------|--------3--------|--------------3--------3--|-----------3--|
G|-----0-----------0-----|-----2-----------|--------0--------0--------|--------0-----|
D|-----------------------|--0--------------|-----2-----2--------2-----|-----0--------|
A|-----------------------|-----------------|--3-----------------------|--------------|
E|--3--------------------|-----------------|--------------------------|--3-----------|

Dhalapala garchan....
E|--------------3-----------|----------------------|--------------------------|
B|-----------------3--------|-----------0--------0-|--------------1--------0--|
G|--------0-----------------|-----0--------0-------|--------0--------0--------|
D|-----0-----0--------------|--2-----2--------2----|-----2-----2--------2-----|
A|--------------------------|----------------------|--3-----------------------|
E|--3-----------------2--0--|----------------------|--------------------------|

E|--------------3--------3--|--------------2--------2--|--------------2--------2--|
B|-----------------3--------|--------3--------3--------|--------3--------3--------|
G|--------0-----------0-----|-----2-----2--------2-----|-----2-----2--------2-----|
D|-----0-----0--------------|--0-----------------------|--0-----------------------|
A|--------------------------|--------------------------|--------------------------|
E|--3-----------------------|--------------------------|--------------------------|

E|--------------2--------3--|
B|--------3--------3--------|
G|-----2-----2--------2-----|
D|--0-----------------------|
A|--------------------------|
E|--------------------------|

E|--------------------------|--------------------------|--------------------------|
B|--------------3--------3--|--------------3--------3--|--------------3--------3--|
G|--------0--------0--------|--------0--------0--------|--------0--------0--------|
D|-----0-----0--------0-----|-----2-----2--------2-----|-----0-----0--------0-----|
A|--------------------------|--3-----------------------|--------------------------|
E|--3-----------------------|--------------------------|--3-----------------------|

E|--------------2--------3--|
B|-----------------3--------|
G|--------0-----------0-----|
D|-----2-----2--------------|
A|--3-----------------------|
E|--------------------------|

E|-----------------|
B|--------------3--|
G|--------0--------|
D|-----0-----0-----|
A|-----------------|
E|--3--------------|

Ram sailee...
E|-----------3--------3--|--------------0h2--------|-------------------------|
B|--------3-----3--------|--------3----------3-----|--------------0--------0-|
G|-----0-----------0-----|-----2-----2----------2--|--------0--------0-------|
D|-----------------------|--0----------------------|-----2-----2--------2----|
A|-----------------------|-------------------------|--2----------------------|
E|--3--------------------|-------------------------|-------------------------|

E|----------------------------|
B|--------------1--3--1--0----|
G|--------0-------------------|
D|-----2-----2----------------|
A|--3-------------------------|
E|----------------------------|

E|-----------3--------3--|-----------2--3--|--------------------------|--------------|
B|--------3-----3--------|--------3--------|--------------3--------3--|-----------3--|
G|-----0-----------0-----|-----2-----------|--------0--------0--------|--------0-----|
D|-----------------------|--0--------------|-----2-----2--------2-----|-----0--------|
A|-----------------------|-----------------|--3-----------------------|--------------|
E|--3--------------------|-----------------|--------------------------|--3-----------|

[INTERLUDE]
E|--3-----------5-----------|-2------------3-----------|--0-----------2--3--|
B|--------3-----------0-----|--------3-----------3-----|--------0-----------|
G|-----0-----0-----0-----0--|-----2-----2-----0-----0--|-----0-----0--------|
D|--------------------------|-0------------------------|--------------------|
A|--------------------------|--------------------------|--2-----------------|
E|--3-----------------------|--------------------------|--------------------|

E|--3---------------------|
B|--3---------------------|
G|--0----------2h0-----0--|
D|-----2--2h0-------2-----|
A|--3---------------------|
E|------------------------|
                                                                
E|--3-----------5--7--|-2------------3-----------|--0----------------------------|
B|--------3-----------|--------3-----------3-----|-------------------------------|
G|-----0-----0--------|-----2-----2-----0-----0--|-----------0--2--4/9--7--5--4--|
D|--------------------|--0-----------------------|-----2--4----------------------|
A|--------------------|--------------------------|--2----------------------------|
E|--3-----------------|--------------------------|-------------------------------|

E|--3-----------5-----------|-2------------3-----------|--0-----------2--5--|
B|--------3-----------0-----|--------3-----------3-----|--------0-----------|
G|-----0-----0-----0-----0--|-----2-----2-----0-----0--|-----0-----0--------|
D|--------------------------|--0-----------------------|--------------------|
A|--------------------------|--------------------------|--2-----------------|
E|--3-----------------------|--------------------------|--------------------|

E|--3---------------------|
B|--3---------------------|
G|--0----------2h0-----0--|
D|-----2--2h0-------2-----|
A|--3---------------------|
E|------------------------|
                                                                
E|--3-----------5--7--|-2------------3-----------|--0--------------------|
B|--------3-----------|--------3-----------3-----|--------------3-----0--|
G|-----0-----0--------|-----2-----2-----0-----0--|--------0--------------|
D|--------------------|--0-----------------------|-----2-----2-----2-----|
A|--------------------|--------------------------|--2--------------------|
E|--3-----------------|--------------------------|-----------------------|

E|--------------------------|
B|-----------3-----------3--|
G|--------0-----------0-----|
D|-----0-----------0--------|
A|--------------------------|
E|--3-----------2-----------|

Chiso chiso hawa chalyo...
E|--------------------------|--------------------------|--------------------------|
B|--------------0--------0--|--------------1--------1--|--------------0--------0--|
G|--------0--------0--------|--------0--------0--------|--------0--------0--------|
D|-----2-----2--------2-----|-----2-----2--------2-----|-----2-----2--------2-----|
A|--2-----------------------|--3-----------------------|--2-----------------------|
E|--------------------------|--------------------------|--------------------------|

E|--------------3--------3--|
B|-----------------3--------|
G|--------0-----------0-----|
D|-----0-----0--------------|
A|--------------------------|
E|--3-----------------------|

E|--------------------------|--------------------------|--------------------------|
B|--------------0--------0--|--------------1--------1--|--------------0--------0--|
G|--------0--------0--------|--------0--------0--------|--------0--------0--------|
D|-----2-----2--------2-----|-----2-----2--------2-----|-----2-----2--------2-----|
A|--2-----------------------|--3-----------------------|--2-----------------------|
E|--------------------------|--------------------------|--------------------------|

E|--------------3--|
B|-----------------|
G|--------0--------|
D|-----0-----0-----|
A|-----------------|
E|--3--------------|

Ram sailee...
E|-----------3--------3--|--------------0h2--------|-------------------------|
B|--------3-----3--------|--------3----------3-----|--------------0--------0-|
G|-----0-----------0-----|-----2-----2----------2--|--------0--------0-------|
D|-----------------------|--0----------------------|-----2-----2--------2----|
A|-----------------------|-------------------------|--2----------------------|
E|--3--------------------|-------------------------|-------------------------|

E|----------------------------|
B|--------------1--3--1--0----|
G|--------0-------------------|
D|-----2-----2----------------|
A|--3-------------------------|
E|----------------------------|

E|-----------3--------3--|-----------2--3--|--------------------------|--------------|
B|--------3-----3--------|--------3--------|--------------3--------3--|-----------3--|
G|-----0-----------0-----|-----2-----------|--------0--------0--------|--------0-----|
D|-----------------------|--0--------------|-----2-----2--------2-----|-----0--------|
A|-----------------------|-----------------|--3-----------------------|--------------|
E|--3--------------------|-----------------|--------------------------|--3-----------|

Dhalapala garchan....
E|--------------3-----------|----------------------|--------------------------|
B|-----------------3--------|-----------0--------0-|--------------1--------0--|
G|--------0-----------------|-----0--------0-------|--------0--------0--------|
D|-----0-----0--------------|--2-----2--------2----|-----2-----2--------2-----|
A|--------------------------|----------------------|--3-----------------------|
E|--3-----------------2--0--|----------------------|--------------------------|

E|--------------3--------3--|--------------2--------2--|--------------2--------2--|
B|-----------------3--------|--------3--------3--------|--------3--------3--------|
G|--------0-----------0-----|-----2-----2--------2-----|-----2-----2--------2-----|
D|-----0-----0--------------|--0-----------------------|--0-----------------------|
A|--------------------------|--------------------------|--------------------------|
E|--3-----------------------|--------------------------|--------------------------|

E|--------------2--------3--|
B|--------3--------3--------|
G|-----2-----2--------2-----|
D|--0-----------------------|
A|--------------------------|
E|--------------------------|

E|--------------------------|--------------------------|--------------------------|
B|--------------3--------3--|--------------3--------3--|--------------3--------3--|
G|--------0--------0--------|--------0--------0--------|--------0--------0--------|
D|-----0-----0--------0-----|-----2-----2--------2-----|-----0-----0--------0-----|
A|--------------------------|--3-----------------------|--------------------------|
E|--3-----------------------|--------------------------|--3-----------------------|

E|--------------2--------3--|
B|-----------------3--------|
G|--------0-----------0-----|
D|-----2-----2--------------|
A|--3-----------------------|
E|--------------------------|

E|-----------------|
B|--------------3--|
G|--------0--------|
D|-----0-----0-----|
A|-----------------|
E|--3--------------|

Ram sailee...
E|-----------3--------3--|--------------0h2--------|-------------------------|
B|--------3-----3--------|--------3----------3-----|--------------0--------0-|
G|-----0-----------0-----|-----2-----2----------2--|--------0--------0-------|
D|-----------------------|--0----------------------|-----2-----2--------2----|
A|-----------------------|-------------------------|--2----------------------|
E|--3--------------------|-------------------------|-------------------------|

E|----------------------------|
B|--------------1--3--1--0----|
G|--------0-------------------|
D|-----2-----2----------------|
A|--3-------------------------|
E|----------------------------|

E|-----------3--------3--|-----------2--3--|--------------------------|
B|--------3-----3--------|--------3--------|--------------3--------3--|
G|-----0-----------0-----|-----2-----------|--------0--------0--------|
D|-----------------------|--0--------------|-----2-----2--------2-----|
A|-----------------------|-----------------|--3-----------------------|
E|--3--------------------|-----------------|--------------------------|             

E|--------------------------|
B|--------------3--------3--|
G|--------0--------0--------|
D|-----0-----0--------0-----|
A|--------------------------|
E|--3-----------------------| 

E|--------------2-------3---|-------------------|
B|-----------------3--------|--------------3----|
G|--------0-----------0-----|--------0-----2h4--|
D|-----2-----2--------------|-----0-----0--0----|
A|--3-----------------------|-------------------|
E|--------------------------|--3----------------|


************************************

| h  Hammer-on
| /  Slide up

************************************
Suggest correction
Creating personal tab
Creating personal tab
You can edit any tab online and save it as your Personal.

You can edit, replace or remove any tab part or add personal notes – all changes will be seen only by you.

Personal tabs can be accessed anytime from any device, even offline.
Learn more »
comments
print report bad tab
guest
You may want to rate the tab now too:
select rating
Wanna post a correction for this tab? Suggest correction