Oops, an error
Loading. Please wait.

Drown Bass Tab

10 views 1 this week
no commentswrite comment
1 2 3 4 5
3 more votes to show rating
add to favorites
launch autoscroll
font size
0
reset
guitar tuner
Autoscroll
slow
fast
+/-
esc
set tempo
stop
Help us to improve Ultimate-Guitar.com Take our survey!
×
Author
Difficulty
novice
-------------------------------------------------------------------------------
                             Drown - Birdbrain
-------------------------------------------------------------------------------
Tabbed by: OrangeOcelot
E-mail: adrian.kelly@outlook.ie

Tuning: E Standard

This is the bassline note for note from the track Drown on Birdbrain's debut album Bliss (1995)
If you spot any mistakes feel free to email me and I'll fix them!

The main parts are listed here on their own, along with a guide of when they should be played.
A full and labelled version is also shown below.

Intro x3
End of Intro x1
Main Riff x2
Main Riff Variation x1
Main Riff x1
Intro x2
Main Riff x2
Main Riff Variation x1
Transition to Chorus x1
Chorus x4
End of Chorus x1
Intro x1
End of Intro x1
Main Riff x2
Main Riff Variation x1
Transition to Chorus x1
Chorus x4
End of Chorus x1
Bridge x3
End of Bridge x1
Intro x3
End of Intro x1
Main Riff x2
Main Riff Variation x1
Transition to Chorus x1
Chorus x4
Ending x1

[Intro]
G|------------------------------------------------------------------------------------------------|
D|------------------------------------------------------------------------------------------------|
A|--------5--5--5----2--2-------------------------------------------------------------------------|
E|--2--2-------------------1--1--0----------------------------------------------------------------|


[End of Intro]
G|------------------------------------------------------------------------------------------------|
D|------------------------------------------------------------------------------------------------|
A|--------5--5--5--2--2----2--2----2--2----2--2---------------------------------------------------|
E|--2--2-------------------------------------------5h7\-------------------------------------------|


[Main Riff]
G|------------------------------------------------------------------------------------------------|
D|----------------------4-------------------------------------------------------------------------|
A|--------5--5----2--2-----2----------------------------------------------------------------------|
E|--2--2----------------------1--0----------------------------------------------------------------|


[Main Riff Variation]
G|------------------------------------------------------------------------------------------------|
D|------------------------------------------------------------------------------------------------|
A|--------5--5------------------------------------------------------------------------------------|
E|--2--2--------3--3--3--3----3--3--3-------------------------------------------------------------|


[Transition to Chorus]
G|------------------------------------------------------------------------------------------------|
D|------------------------------------------------------------------------------------------------|
A|------------------------------------------------------------------------------------------------|
E|--2--2----5--5--5-------------------------------------------------------------------------------|


[Chorus]
G|------------------------------------------------------------------------------------------------|
D|------------------------------------------------------------------------------------------------|
A|------------------------------------------------------------------------------------------------|
E|--3----3--3----0--0--0----1--1--1--1--1--1--1--1------------------------------------------------|


[End of Chorus]
G|------------------------------------------------------------------------------------------------|
D|------------------------------------------------------------------------------------------------|
A|------------------------------------------------------------------------------------------------|
E|--1--1--1--0--1--0--1--0------------------------------------------------------------------------|


[Bridge]
G|------------------------------------------------------------------------------------------------|
D|------------------------------------------------------------------------------------------------|
A|-----6----------------4----------------6--6--6--6----6--6--6--6----6----6--6--6-----------------|
E|--4-----3--3--3----2-----1--1--1--0-------------------------------------------------------------|


[End of Bridge]
G|------------------------------------------------------------------------------------------------|
D|------------------------------------------------------------------------------------------------|
A|-----6----------------4----------------6--6--6--6----6--6--6--6----6--6--6--6----6--6--6--6-----|
E|--4-----3--3--3----2-----1--1--1--0-------------------------------------------------------------|


[Ending]
G|------------------------------------------------------------------------------------------------|
D|------------------------------------------------------------------------------------------------|
A|------------------------------------------------------------------------------------------------|
E|--1--1--1--1--1--1--1--1----1--1----1--1----1--1----1--1----------------------------------------|


===============================================================================

FULL VERSION:

[Intro]
G|------------------------------------------------------------------------------------------------|
D|------------------------------------------------------------------------------------------------|
A|--------5--5--5----2--2-------------------------------------------------------------------------|
E|--2--2-------------------1--1--0----------------------------------------------------------------|  x3


[End of Intro]
G|------------------------------------------------------------------------------------------------|
D|------------------------------------------------------------------------------------------------|
A|--------5--5--5--2--2----2--2----2--2----2--2---------------------------------------------------|
E|--2--2-------------------------------------------5h7\-------------------------------------------|


[Main Riff]
G|------------------------------------------------------------------------------------------------|
D|----------------------4-------------------------------------------------------------------------|
A|--------5--5----2--2-----2----------------------------------------------------------------------|
E|--2--2----------------------1--0----------------------------------------------------------------|  x2


[Main Riff Variation]
G|------------------------------------------------------------------------------------------------|
D|------------------------------------------------------------------------------------------------|
A|--------5--5------------------------------------------------------------------------------------|
E|--2--2--------3--3--3--3----3--3--3-------------------------------------------------------------|


[Main Riff]
G|------------------------------------------------------------------------------------------------|
D|----------------------4-------------------------------------------------------------------------|
A|--------5--5----2--2-----2----------------------------------------------------------------------|
E|--2--2----------------------1--0----------------------------------------------------------------|


[Intro]
G|------------------------------------------------------------------------------------------------|
D|------------------------------------------------------------------------------------------------|
A|--------5--5--5----2--2-------------------------------------------------------------------------|
E|--2--2-------------------1--1--0----------------------------------------------------------------|  x2


[Main Riff]
G|------------------------------------------------------------------------------------------------|
D|----------------------4-------------------------------------------------------------------------|
A|--------5--5----2--2-----2----------------------------------------------------------------------|
E|--2--2----------------------1--0----------------------------------------------------------------|  x2


[Main Riff Variation]
G|------------------------------------------------------------------------------------------------|
D|------------------------------------------------------------------------------------------------|
A|--------5--5------------------------------------------------------------------------------------|
E|--2--2--------3--3--3--3----3--3--3-------------------------------------------------------------|


[Transition to Chorus]
G|------------------------------------------------------------------------------------------------|
D|------------------------------------------------------------------------------------------------|
A|------------------------------------------------------------------------------------------------|
E|--2--2----5--5--5-------------------------------------------------------------------------------|


[Chorus]
G|------------------------------------------------------------------------------------------------|
D|------------------------------------------------------------------------------------------------|
A|------------------------------------------------------------------------------------------------|
E|--3----3--3----0--0--0----1--1--1--1--1--1--1--1------------------------------------------------|  x4


[End of Chorus]
G|------------------------------------------------------------------------------------------------|
D|------------------------------------------------------------------------------------------------|
A|------------------------------------------------------------------------------------------------|
E|--1--1--1--0--1--0--1--0------------------------------------------------------------------------|


[Intro]
G|------------------------------------------------------------------------------------------------|
D|------------------------------------------------------------------------------------------------|
A|--------5--5--5----2--2-------------------------------------------------------------------------|
E|--2--2-------------------1--1--0----------------------------------------------------------------|


[End of Intro]
G|------------------------------------------------------------------------------------------------|
D|------------------------------------------------------------------------------------------------|
A|--------5--5--5--2--2----2--2----2--2----2--2---------------------------------------------------|
E|--2--2-------------------------------------------5h7\-------------------------------------------|


[Main Riff]
G|------------------------------------------------------------------------------------------------|
D|----------------------4-------------------------------------------------------------------------|
A|--------5--5----2--2-----2----------------------------------------------------------------------|
E|--2--2----------------------1--0----------------------------------------------------------------|  x2


[Main Riff Variation]
G|------------------------------------------------------------------------------------------------|
D|------------------------------------------------------------------------------------------------|
A|--------5--5------------------------------------------------------------------------------------|
E|--2--2--------3--3--3--3----3--3--3-------------------------------------------------------------|


[Transition to Chorus]
G|------------------------------------------------------------------------------------------------|
D|------------------------------------------------------------------------------------------------|
A|------------------------------------------------------------------------------------------------|
E|--2--2----5--5--5-------------------------------------------------------------------------------|


[Chorus]
G|------------------------------------------------------------------------------------------------|
D|------------------------------------------------------------------------------------------------|
A|------------------------------------------------------------------------------------------------|
E|--3----3--3----0--0--0----1--1--1--1--1--1--1--1------------------------------------------------|  x4


[End of Chorus]
G|------------------------------------------------------------------------------------------------|
D|------------------------------------------------------------------------------------------------|
A|------------------------------------------------------------------------------------------------|
E|--1--1--1--0--1--0--1--0------------------------------------------------------------------------|


[Bridge]
G|------------------------------------------------------------------------------------------------|
D|------------------------------------------------------------------------------------------------|
A|-----6----------------4----------------6--6--6--6----6--6--6--6----6----6--6--6-----------------|
E|--4-----3--3--3----2-----1--1--1--0-------------------------------------------------------------|  x3


[End of Bridge]
G|------------------------------------------------------------------------------------------------|
D|------------------------------------------------------------------------------------------------|
A|-----6----------------4----------------6--6--6--6----6--6--6--6----6--6--6--6----6--6--6--6-----|
E|--4-----3--3--3----2-----1--1--1--0-------------------------------------------------------------|


[Intro]
G|------------------------------------------------------------------------------------------------|
D|------------------------------------------------------------------------------------------------|
A|--------5--5--5----2--2-------------------------------------------------------------------------|
E|--2--2-------------------1--1--0----------------------------------------------------------------|  x3


[End of Intro]
G|------------------------------------------------------------------------------------------------|
D|------------------------------------------------------------------------------------------------|
A|--------5--5--5--2--2----2--2----2--2----2--2---------------------------------------------------|
E|--2--2-------------------------------------------5h7\-------------------------------------------|


[Main Riff]
G|------------------------------------------------------------------------------------------------|
D|----------------------4-------------------------------------------------------------------------|
A|--------5--5----2--2-----2----------------------------------------------------------------------|
E|--2--2----------------------1--0----------------------------------------------------------------|  x2


[Main Riff Variation]
G|------------------------------------------------------------------------------------------------|
D|------------------------------------------------------------------------------------------------|
A|--------5--5------------------------------------------------------------------------------------|
E|--2--2--------3--3--3--3----3--3--3-------------------------------------------------------------|


[Transition to Chorus]
G|------------------------------------------------------------------------------------------------|
D|------------------------------------------------------------------------------------------------|
A|------------------------------------------------------------------------------------------------|
E|--2--2----5--5--5-------------------------------------------------------------------------------|


[Chorus]
G|------------------------------------------------------------------------------------------------|
D|------------------------------------------------------------------------------------------------|
A|------------------------------------------------------------------------------------------------|
E|--3----3--3----0--0--0----1--1--1--1--1--1--1--1------------------------------------------------|  x4


[Ending]
G|------------------------------------------------------------------------------------------------|
D|------------------------------------------------------------------------------------------------|
A|------------------------------------------------------------------------------------------------|
E|--1--1--1--1--1--1--1--1----1--1----1--1----1--1----1--1----------------------------------------|


| h  hammer-on
| \  slide down (unpitched)

===============================================================================
Suggest correction
Give kudos to tab author, rate the tab!
1 2 3 4 5
comments
print report bad tab
guest
You may want to rate the tab now too:
select rating
Wanna post a correction for this tab? Suggest correction