Oops, an error
Loading. Please wait.

Youth Of America Bass Tab

version 2
version 2

Whole song

  • In the original tuning of B Standard for a 5 string bass as on the record.
13 views 1 this week
no commentswrite comment
1 2 3 4 5
2 more votes to show rating
add to favorites
launch autoscroll
font size
0
reset
guitar tuner
Autoscroll
slow
fast
+/-
esc
set tempo
stop
Help us to improve Ultimate-Guitar.com Take our survey!
×
Author
Difficulty
Tuning
novice
B E A D F# B
About this tab version
In the original tuning of B Standard for a 5 string bass as on the record. Was this info helpful? Yes No
-------------------------------------------------------------------------------
                             YOUTH OF AMERICA - Birdbrain
-------------------------------------------------------------------------------
Tabbed by: OrangeOcelot
E-mail: adrian.kelly@outlook.ie

Tuning: B Standard

This is the original bassline of Youth of America by Birdbrain from their 2nd album Let's Be Nice (1997)
The other versions I saw were all an octave above the original and were slightly inaccurate in places.
This is as faithful to the original as I could get so you will need a 5 string bass to play it.
If you spot any mistakes feel free to email me and I'll fix them!


[Main Riff]
G|------------------------------------------------------------------------------------------------|
D|------------------------------------------------------------------------------------------------|
A|------------------------------------------------------------------------------------------------|
E|---------------5--5----2--2--3--2--0------------------------------------------------------------|
B|--2----5--5-------------------------------------------------------------------------------------|


[Chorus]
G|------------------------------------------------------------------------------------------------|
D|------------------------------------------------------------------------------------------------|
A|------------------------------------------------------------------------------------------------|
E|--------------------------6--6--6--6--6--6--6--6--5--5--5--5--5--5--5--5--4--5--5--4--5--5--4--3|
B|--3--3--3--3--3--3--3--3------------------------------------------------------------------------|

G|------------------------------------------------------------------------------------------------|
D|------------------------------------------------------------------------------------------------|
A|------------------------------------------------------------------------------------------------|
E|--------------------------6--6--6--6--6--6--6--6--5--5--5--5--5--5--5--5--5\0-------------------|
B|--3--3--3--3--3--3--3--3------------------------------------------------------------------------|


| \  slide down
===============================================================================
Suggest correction
Give kudos to tab author, rate the tab!
1 2 3 4 5
comments
print report bad tab
guest
You may want to rate the tab now too:
select rating
Wanna post a correction for this tab? Suggest correction