Oops, an error
Loading. Please wait.

Worlds Of Astaroth Tab

13 views 3 this week
no commentswrite comment
1 2 3 4 5
3 more votes to show rating
add to favorites
launch autoscroll
font size
0
reset
how to read this tab
guitar tuner
Autoscroll
slow
fast
+/-
esc
set tempo
stop
Help us to improve Ultimate-Guitar.com Take our survey!
×
Author
[Intro]

e|-----|
B|-----|
G|-----|
D|-7-3-|
A|-7-3-|
E|-5-1-|

[Bridge]

e|---------|
B|-6-------|
G|-7-1-2-4-|
D|-7-2-3-5-|
A|---2-3-5-|
E|---0-1-3-|

Main riff :

e|-----------------|-----------------|
B|-----------------|-----------------|
G|-5-5-5-5-5-5-5-5-|-4-------5h7-7-x-|
D|-7-7-7-7-7-7-7-7-|-5-----5-5---5-x-|
A|-----------------|---5h7-----------|
E|-----------------|-----------------|

Riff 2 :

e|---------------|---------------|---|
B|---------------|---------------|-0-|
G|-5-------------|-5-------------|-5-|
D|---7---5h7-7---|---7---5h7-----|-7-|
A|-----7-------7-|-----7-----5h7-|---|
E|---------------|---------------|---|


Riff 3 :

e|-------|-------|-------|-------------|
B|-------|-------|-------|-------------|
G|-5-----|-5-----|-5-----|-4-----5-----|
D|---7---|---7---|---7---|---6-----6---|
A|-----8-|-----0-|-----8-|-----7-----7-|
E|-------|-------|-------|-------------|


Main riff :

e|-----------------|-----------------|
B|-----------------|-----------------|
G|-5-5-5-5-5-5-5-5-|-4-------5h7-7-x-|
D|-7-7-7-7-7-7-7-7-|-5-----5-5---5-x-|
A|-----------------|---5h7-----------|
E|-----------------|-----------------|


Final chords :

e|-5-5-7-8-|
B|-5-6-6-6-|
G|-5-5-5-5-|
D|-7-7-7-7-|
A|---------|
E|---------|



************************************

| x  Dead note
| h  Hammer-on

************************************
Suggest correction
Give kudos to tab author, rate the tab!
1 2 3 4 5
comments
print report bad tab
guest
You may want to rate the tab now too:
select rating
Wanna post a correction for this tab? Suggest correction