Oops, an error
Loading. Please wait.

All About You Tab

23,583 views 60 this week
1 commentread comment
1 2 3 4 5
excellent!
x 23
add to favorites
launch autoscroll
font size
0
reset
how to read this tab
guitar tuner
Tab Pro tools
  • play this tab
  • loop segment
  • change instrument
  • show fretboard
  • metronome
×
Best way to learn
"All About You"
Autoscroll
slow
fast
+/-
esc
set tempo
stop
Contributor
Difficulty
Capo
intermediate
3rd fret
All About You - Birdy

Music and lyrics made by Birdy. I have no credit for the music and made this tab 
by listening to the song. I hope you like it!



Capo 3 


INTRO

E|------------------------------------------------------------------------------0-----0-----0------|
B|-----0-----------0-----------0----------------------1-----------1--------3/5-----3-----1-----0---|
G|--------0-----------0-----------0----------0-----------------------------------------------------|
D|--------------------------------------0h2-----2--------2-----------2-----------------------------|
A|--3--------3--3--------3--3--------3-------------0--------0--0--------0--------------------------|
E|-------------------------------------------------------------------------------------------------|


E|------------------------------------------------------------------------------------------------|
B|-----0-----------0-----------0----------------------1-----------1-----------1-------------------|
G|--------0-----------0-----------0----------0----------------------------------------------0-----|
D|--------------------------------------0h2-----2--------2-----------2-----------2-----0h2-----2--|
A|--3--------3--3--------3--3--------3-------------0--------0--0--------0--0--------3-------------|
E|------------------------------------------------------------------------------------------------|



VERSE

E|-------------------------------------------------------------------------------0-----0-----0----|
B|-----0-----------0-----------0-----------0-----------1-----------1--------3/5-----3-----1-----0-|
G|--------0-----------0-----------0-----------0---------------------------------------------------|
D|--------------------------------------------------------2-----------2---------------------------|
A|--3--------3--3--------3--3--------3--3--------3--0--------0--0--------0------------------------|
E|------------------------------------------------------------------------------------------------|


E|------------------------------------------------------------------------------------------------|
B|-----0-----------0-----------0-----------0----------1-----------1-----------1-------------------|
G|--------0-----------0-----------0-----------0---------------------------------------------0-----|
D|-------------------------------------------------------2-----------2-----------2-----0h2-----2--|
A|--3--------3--3--------3--3--------3--3--------3--0--------0--0--------0--0--------3------------|
E|------------------------------------------------------------------------------------------------|



PRE CHORUS

The melody changes sometimes but this are the most used notes. Listen to the song for the exact melody.



E|-----------0----------------------------------------------0-----------------------------------|
B|--------3--------3-----3----------0h1------------------3--3----3-----3----------0h1-----------|
G|-----0--------------0------------------0------------0--0-------0--0------------------0-----0--|
D|-------------------------------0----------0----------------------------------0----------0-----|
A|--3-----------------------0h2--------------------3----------------------0h2-------------------|
E|----------------------------------------------------------------------------------------------|

E|-----------0------------------|
B|--------3-----3-----3------0--|
G|-----0-----------0---------0--|
D|---------------------------0--|
A|--3------------------------2--|
E|------------------------------|


CHORUS

    Am                        F                         G     |
|
E|--0--x------0----0--0--0----1--x------1----1--1--1----3--x--|
B|--1--x------1----1--1--1----1--x------1----1--1--1----3--x--|
G|--2--x------2----2--2--2----2--x------2----2--2--2----0--x--|
D|--2--x------2----2--2--2----3--x------3----3--3--3----0--x--|
A|--0--x------0----0--0--0----3--x------3----3--3--3----2--x--|
E|--0--x------0----0--0--0----1--x------1----1--1--1----3--x--|

                    C           E?

----3----3--3--3----0----0--0---x----x--x-.||
----3----3--3--3----1----1--1---0----0--0-.||
----0----0--0--0----0----0--0---0----0--0-.||
----0----0--0--0----2----2--2---0----0--0-.||
----2----2--2--2----3----3--3---2----2--2-.||
----3----3--3--3----x----x--x---x----x--x-.||

  5x


    Am                        F    G    Am                   G
E|--0--x------0----0--0--0----1----3----0-----0----0--0--0---3----|
B|--1--x------1----1--1--1----1----3----1-----1----1--1--1---3----|
G|--2--x------2----2--2--2----2----0----2-----2----2--2--2---0----|
D|--2--x------2----2--2--2----3----0----2-----2----2--2--2---0----|
A|--0--x------0----0--0--0----3----2----0-----0----0--0--0---2----|
E|--0--x------0----0--0--0----1----3----0-----0----0--0--0---3----|




VERSE

E|-------------------------------------------------------------------------------0-----0-----0----|
B|-----0-----------0-----------0-----------0-----------1-----------1--------3/5-----3-----1-----0-|
G|--------0-----------0-----------0-----------0---------------------------------------------------|
D|--------------------------------------------------------2-----------2---------------------------|
A|--3--------3--3--------3--3--------3--3--------3--0--------0--0--------0------------------------|
E|------------------------------------------------------------------------------------------------|


E|------------------------------------------------------------------------------------------------|
B|-----0-----------0-----------0-----------0----------1-----------1-----------1-------------------|
G|--------0-----------0-----------0-----------0---------------------------------------------0-----|
D|-------------------------------------------------------2-----------2-----------2-----0h2-----2--|
A|--3--------3--3--------3--3--------3--3--------3--0--------0--0--------0--0--------3------------|
E|------------------------------------------------------------------------------------------------|



PRE CHORUS




E|-----------0----------------------------------------------0-----------------------------------|
B|--------3--------3-----3----------0h1------------------3--3----3-----3----------0h1-----------|
G|-----0--------------0------------------0------------0--0-------0--0------------------0-----0--|
D|-------------------------------0----------0----------------------------------0----------0-----|
A|--3-----------------------0h2--------------------3----------------------0h2-------------------|
E|----------------------------------------------------------------------------------------------|

E|-----------0------------------|
B|--------3-----3-----3------0--|
G|-----0-----------0---------0--|
D|---------------------------0--|
A|--3------------------------2--|
E|------------------------------|


CHORUS

    Am                        F                         G     |
|
E|--0--x------0----0--0--0----1--x------1----1--1--1----3--x--|
B|--1--x------1----1--1--1----1--x------1----1--1--1----3--x--|
G|--2--x------2----2--2--2----2--x------2----2--2--2----0--x--|
D|--2--x------2----2--2--2----3--x------3----3--3--3----0--x--|
A|--0--x------0----0--0--0----3--x------3----3--3--3----2--x--|
E|--0--x------0----0--0--0----1--x------1----1--1--1----3--x--|

                    C           E?

----3----3--3--3----0----0--0---x----x--x-.||
----3----3--3--3----1----1--1---0----0--0-.||
----0----0--0--0----0----0--0---0----0--0-.||
----0----0--0--0----2----2--2---0----0--0-.||
----2----2--2--2----3----3--3---2----2--2-.||
----3----3--3--3----x----x--x---x----x--x-.||

Repeat


    Am                        F    G    Am                   G
E|--0--x------0----0--0--0----1----3----0-----0----0--0--0---3----|
B|--1--x------1----1--1--1----1----3----1-----1----1--1--1---3----|
G|--2--x------2----2--2--2----2----0----2-----2----2--2--2---0----|
D|--2--x------2----2--2--2----3----0----2-----2----2--2--2---0----|
A|--0--x------0----0--0--0----3----2----0-----0----0--0--0---2----|
E|--0--x------0----0--0--0----1----3----0-----0----0--0--0---3----|



OUTRO


E|------------------------------------------------------------------------------0-----3------0------|
B|-----0-----------0-----------0----------------------1-----------1--------3/5-----3-----1------0---|
G|--------0-----------0-----------0----------0------------------------------------------------------|
D|--------------------------------------0h2-----2--------2-----------2------------------------------|
A|--3--------3--3--------3--3--------3-------------0--------0--0--------0---------------------------|
E|--------------------------------------------------------------------------------------------------|

E|-----------------------------------------------------------------------------0-----0---------0----0-|
B|----0-----------0-----------0----------------------1-----------1--------3/5-----3-------1---------1-|
G|-------0-----------0-----------0----------0-------------------------------------------------------0-|
D|-------------------------------------0h2-----2--------2-----------2-------------------------------2-|
A|-3--------3--3--------3--3--------3-------------0--------0--0--------0----------------------------3-|
E|--------------------------------------------------------------------------------------------------0-|
comments
print report bad tab
1 comment total.
+1 reply
Snakefingers13 wrote on March 14 2014, 04:08 pm

In the chord at the end of the pre-chorus and chorus, the A string fretted on first fret should actually be fretted on the second fret.

Also, in the verse and outro the slide from 3rd fret to 6th fret on the B string should actually be a slide from 3rd fret to 5th fret, and the open high E string being played in the little passage should be replaced by an open G string.

Excellent tab otherwise.

I want to post or [tab]
guest
You may want to rate the tab now too:
select rating
Please do not post tabs as comments. Select "correction" instead!