Oops, an error
Loading. Please wait.

Keeping Your Head Up Bass

by Birdy
202 views 1 this week
no commentswrite comment
1 2 3 4 5
3 more votes to show rating
add to favorites
launch autoscroll
font size
0
reset
guitar tuner
Autoscroll
slow
fast
+/-
esc
set tempo
stop
Author
Difficulty
intermediate
KEEPING YOUR HEAD UP  -  BIRDY

[Intro]
G|---------------------------------|
D|------------6----9---------------|
A|-7-------9------------------6----|
E|-------------------------9-------|
   |-      |-      |-      |

[Verse]
G|----------------------------8------------------------------------|
D|---------6-------9-------8-----8---------6-------9-------8--9--8-|
A|-7--------------(2)--------------7--------------(2)--------------|
E|(9)-----(4)-------------(2)-----(9)-----(4)-------------(2)------|
   |-      |-      |-      |-      |-      |-      |-      |

G|-------------------------------------------------------------------|
D|---------9-8-98--6-------9-8-986---------9-8-98--6------6--6--666--|
A|-7-------------------------------7---------------------------(4-6)-|
E|(0)-----(2)-----(4)-------------(0)-----(2)-----(4)----------------|
   |-      |-      |-      |-      |-      |-      |-      |

[Chorus]
G|---------------------------------|
D|---------------------------------|
A|(7)----------------------4--6----|- 3x
E|-0-------6--4----7---------------|
   |-      |-      |-      |

G|-------------------------------------------------|
D|-------------------------------------------------|
A|-----------------2-------4-----------------------|
E|-0-------2--4--------------------2---------------|
   |-      |-      |-      |-      |

[Verse]
G|----------------------------8------------------------------------|
D|---------6-------9-------8-----8---------6-------9-------8--9--8-|
A|-7--------------(2)--------------7--------------(2)--------------|
E|(9)-----(4)-------------(2)-----(9)-----(4)-------------(2)------|
   |-      |-      |-      |-      |-      |-      |-      |

G|-------------------------------------------------------------------|
D|---------9-8-98--6-------9-8-986---------9-8-98--6------6--6--666--|
A|-7-------------------------------7---------------------------(4-6)-|
E|(0)-----(2)-----(4)-------------(0)-----(2)-----(4)----------------|
   |-      |-      |-      |-      |-      |-      |-      |

[Chorus]
G|---------------------------------|
D|---------------------------------|
A|(7)----------------------4--6----|- 3x
E|-0-------6--4----7---------------|
   |-      |-      |-      |

G|-----------------------------------------|
D|-----------------------------------------|
A|-----------------2-------4---------------|
E|-0-------2--4--------------------2-------|
   |-      |-      |-      |-      |

[Bridge]
G|----------------------------------------------------------------(9-11-13-9)--------|
D|-------------------------------------------------7------(7)---------------(8-6--6)-|
A|-4---------------7-----------------------------------------------------------------|
E|---------7-------------------7---9-------7-----------------------------------------|
   |-      |-      |-      |-      |-      |-      |-      |-      |-      |

[Chorus] Rhythm:
G|---(9)-----(9)-------------------------------------(6)--(6--8)---|
D|---------------------------(6)-----(9)-----(9)-------------------|
A|-7--7--7-7--7--7---------------------------------4--4--4-4--6--6-|- till end
E|(0)--------------6--6--4-4--4--4-7--7--7-7--7--7-----------------|
   |-              |-              |-              |

************************************
Added Information:

+ The notes in brackets are a second way to play it (easier).

+ Every pillar marks one tact (4 beats), so careful with the last Chorus ;)

+ The riff you see in the Verse is only one idea to play it with more style.
  It's up to you ...
Suggest correction
Give kudos to tab author, rate the tab!
1 2 3 4 5
comments
print report bad tab
guest
You may want to rate the tab now too:
select rating
Wanna post a correction for this tab? Suggest correction