Oops, an error
Loading. Please wait.

Not About Angels tab

by Birdy
6,629 views 18 this week
no commentswrite comment
1 2 3 4 5
x 14
add to favorites
×
Save as Personal and add changes to this tab that will be seen only by you. Learn more ›
×
You can save this tab as Personal to edit and correct it or add notes. All changes will be seen only by you. Learn more »
launch autoscroll
font size
0
reset
how to read this tab
guitar tuner
edit
Autoscroll
slow
fast
+/-
esc
set tempo
stop
No capo 
Tuning Standard


 We know full...
e|--------------------------|--------------------------|
B|--------------------------|--------------------------|
G|---5--5--5--5--5--5--5--5-|---5--5--5--5--5--5--5--5-|  (x3)
D|--7--7--7--7--7--7---7--7-|-5--5--5--5--5--5--5--5---|
A|--------------------------|--------------------------|
E|--------------------------|--------------------------|
So is it wrong... 
If your heart...

 Could you..:
e|--------------------------|--------------------------|
B|--------------------------|--------------------------|
G|---5--5--5--5--7--7--7--7-|---5--5--5--5--5--5--5--5-|
D|--7--7--7--7--9--9--9--9--|--5--5--5--5--5--5--5--5--|
A|--------------------------|--------------------------|
E|--------------------------|--------------------------|

 But what about...
e|---3--3--3--3--5--5--5--5-|--5--5--5--5--3--3--3--3-|
B|--------------------------|-------------5--5--5--5--|
G|--4--4--4--4--5--5--5--5--|-5--5--5--5--------------|  
D|--------------------------|-------------------------|
A|--------------------------|-------------------------|
E|--------------------------|-------------------------|

 They will come...
e|---3--3--3--3--5--5--5--5-|--5--5--5--5--3--3--3--3-|
B|--------------------------|-------------5--5--5--5--|
G|--4--4--4--4--5--5--5--5--|-5--5--5--5--------------|  
D|--------------------------|-------------------------|
A|--------------------------|-------------------------|
E|--------------------------|-------------------------|

e|---3--3--3--3--3--3--3--3-|
B|--------------------------|
G|--4--4--4--4--4--4--4--4--|
D|--------------------------|
A|--------------------------|
E|--------------------------|

 Don't give...
e|--5--5--5--5--5--5--5--5-|--3--3--3--3--3--3--3--3-|
B|-------------------------|-------------------------|
G|-5--5--5--5--5--5--5--5--|-4--4--4--4--4--4--4--4--|
D|-------------------------|-------------------------|
A|-------------------------|-------------------------|
E|-------------------------|-------------------------|

 Don't give...
e|--5--5--5--5--5--5--5--5-|--5--5--5--5--3--3--3--3-|--3--3--3--3----------|
B|-------------------------|-------------5--5--5--5--|-5--5--5--5-----------|
G|-5--5--5--5--5--5--5--5--|-5--5--5--5--------------|----------------------|
D|-------------------------|-------------------------|----------------------|
A|-------------------------|-------------------------|----------------------|
E|-------------------------|-------------------------|----------------------|

The next verse it's almost the same as the first, the only difference is that you play the 6th string
or the 5th string, depending, to give it a lower sound. Like this:

 How unfair...
e|--------------------------|--------------------------|
B|--------------------------|--------------------------|
G|---5--5--5--5--5--5--5--5-|---5--5--5--5--5--5--5--5-|  (x3)
D|--7--7--7--7--7--7--7--7--|-5--5--5--5--5--5--5--5---|
A|--0--0--0--0--0--0--0--0--|--------------------------|
E|--------------------------|-0--0--0--0--3--3--3--3---| 
Found something... 
But if you...

 Would you..:
e|--------------------------|--------------------------|
B|--------------------------|--------------------------|
G|---5--5--5--5--7--7--7--7-|---5--5--5--5--5--5--5--5-|
D|--7--7--7--7--9--9--9--9--|--5--5--5--5--5--5--5--5--|
A|--0--0--0--0--7--7--7--7--|--------------------------|
E|--------------------------|--0--0--0--0--3--3--3--3--|

 But what about...
e|---3--3--3--3--5--5--5--5-|--5--5--5--5--3--3--3--3-|
B|--------------------------|-------------5--5--5--5--|
G|--4--4--4--4--5--5--5--5--|-5--5--5--5--------------|  
D|--------------------------|-------------------------|
A|--------------------------|-------------------------|
E|--3--3--3--3--5--5--5--5--|-5--5--5--5--3--3--3--3--|

 They will come...
e|---3--3--3--3--5--5--5--5-|--5--5--5--5--3--3--3--3-|
B|--------------------------|-------------5--5--5--5--|
G|--4--4--4--4--5--5--5--5--|-5--5--5--5--------------|  
D|--------------------------|-------------------------|
A|--------------------------|-------------------------|
E|--3--3--3--3--5--5--5--5--|-5--5--5--5--3--3--3--3--|

e|---3--3--3--3--3--3--3--3-|
B|--------------------------|
G|--4--4--4--4--4--4--4--4--|
D|--------------------------|
A|--------------------------|
E|--3--3--3--3--3--3--3--3--|

 Don't give...
e|--5--5--5--5--5--5--5--5-|--3--3--3--3--3--3--3--3-|
B|-------------------------|-------------------------|
G|-5--5--5--5--5--5--5--5--|-4--4--4--4--4--4--4--4--|
D|-------------------------|-------------------------|
A|-------------------------|-------------------------|
E|-5--5--5--5--5--5--5--5--|-3--3--3--3--3--3--3--3--|

 Don't give...
e|--5--5--5--5--5--5--5--5-|--5--5--5--5--3--3--3--3-|--3--3--3--3----------|
B|-------------------------|-------------5--5--5--5--|-5--5--5--5-----------|
G|-5--5--5--5--5--5--5--5--|-5--5--5--5--------------|----------------------|
D|-------------------------|-------------------------|----------------------|
A|-------------------------|-------------------------|----------------------|
E|-5--5--5--5--5--5--5--5--|-5--5--5--5--0--0--0--0--|-0--0--0--0-----------|

            
            
Suggest correction
Creating personal tab
Creating personal tab
You can edit any tab online and save it as your Personal.

You can edit, replace or remove any tab part or add personal notes – all changes will be seen only by you.

Personal tabs can be accessed anytime from any device, even offline.
Learn more »
comments
print report bad tab
guest
You may want to rate the tab now too:
select rating
Wanna post a correction for this tab? Suggest correction