Oops, an error
Loading. Please wait.

Terrible Love tab

version 2
version 2

Whole song

  • My tab to Birdy's Terrible Love is an improvisatio... Show more
by Birdy
151 views 1 this week
no commentswrite comment
1 2 3 4 5
3 more votes to show rating
add to favorites
×
Save as Personal and add changes to this tab that will be seen only by you. Learn more ›
×
You can save this tab as Personal to edit and correct it or add notes. All changes will be seen only by you. Learn more »
launch autoscroll
font size
0
reset
how to read this tab
guitar tuner
edit
Autoscroll
slow
fast
+/-
esc
set tempo
stop
About this tab version
My tab to Birdy's Terrible Love is an improvisation of myself. I tried to figure out the piano, it's not exactly correct, but I kept it easy to play and it sounds quite good. Was this info helpful? Yes No
*************************************************************************************************************

                                            Birdy - Terrible Love
                                             Album: Birdy [2012]

*************************************************************************************************************


Tuning: Standard, EADGBe
Capo: 2nd fret



[Intro]

Guitar 1 (picking)

   C                               F                         C
e|---0-----------------0---------|-------0-----------0-----|---0-----------0-----0---------|
B|---1-----------1-----1---------|-------1-----------1-----|---1-----------1-----1---------|
G|-------0-----0---0-----0---0---|-----2---2---2---2---2---|-------0-----0---0-----0---0---|
D|-----2-----2-------2-----2-----|---3-------3---3---------|-----2-----2-------2-----2-----|
A|---3-----3---------------------|---0-----------0---------|---3-----3---------------------|
E|-------------------------------|-------------------------|-------------------------------|

   F
e|-------0--------0-----|
B|-------1--------1-----|
G|-----2---2----2---2---|
D|---3-------3----------|
A|---0-------0----------|
E|----------------------|



[Verse 1]

Guitar 1 (picking)

   C                               F                   
e|-------0-------0-----|---------0----------------0-----|
B|-------1-------1-----|---------1----------------1-----|
G|---------0---0---0---|-----2------2---2-----2-----2---|
D|-----2-----2---------|---3---3------3-----3---3-------|
A|---3-----------------|---0----------------------------|
E|---------------------|--------------------------------|


It's a terrible love and I'm walkin' with spiders
It's a terrible love and I'm walkin' in
It's a terrible love and I'm walkin' with spiders
It's a terrible love and I'm walkin' in
It's quiet company..

 
Guitar 1 (picking)

   C                               F                         C
e|---0-----------------0---------|-------0-----------0-----|---0-----------0-----0---------|
B|---1-----------1-----1---------|-------1-----------1-----|---1-----------1-----1---------|
G|-------0-----0---0-----0---0---|-----2---2---2---2---2---|-------0-----0---0-----0---0---|
D|-----2-----2-------2-----2-----|---3-------3---3---------|-----2-----2-------2-----2-----|
A|---3-----3---------------------|---0-----------0---------|---3-----3---------------------|
E|-------------------------------|-------------------------|-------------------------------|

   F
e|-------0--------0-----|
B|-------1--------1-----|
G|-----2---2----2---2---|
D|---3-------3----------|
A|---0-------0----------|
E|----------------------|


It's quiet company



[Verse 2]

Guitar 1 (picking)

   C                               F                   
e|-------0-------0-----|---------0----------------0-----|
B|-------1-------1-----|---------1----------------1-----|
G|---------0---0---0---|-----2------2---2-----2-----2---|
D|-----2-----2---------|---3---3------3-----3---3-------|
A|---3-----------------|---0----------------------------|
E|---------------------|--------------------------------|


It's a terrible love and I'm walkin' with spiders
It's a terrible love and I'm walkin' in
It's a terrible love and I'm walkin' with spiders
It's a terrible love and I'm walkin' in
It's quiet company..



Guitar 1 (picking)

   C                               F                         C
e|---0-----------------0---------|-------0-----------0-----|---0-----------0-----0---------|
B|---1-----------1-----1---------|-------1-----------1-----|---1-----------1-----1---------|
G|-------0-----0---0-----0---0---|-----2---2---2---2---2---|-------0-----0---0-----0---0---|
D|-----2-----2-------2-----2-----|---3-------3---3---------|-----2-----2-------2-----2-----|
A|---3-----3---------------------|---0-----------0---------|---3-----3---------------------|
E|-------------------------------|-------------------------|-------------------------------|

   F
e|-------0--------0-----|
B|-------1--------1-----|
G|-----2---2----2---2---|
D|---3-------3----------|
A|---0-------0----------|
E|----------------------|   (2x)


It's quiet company
It's quiet company




[Bridge 1]

Guitar 1 (picking)

   Am                    F                     C
e|---------------------|---------------------|-------0-------0-----|-------3-------3-----|
B|-------1-------1-----|-------1-------1-----|-------1-------1-----|-------0-------0-----|
G|-------2-------2-----|-------2-------2-----|---------------------|---------------------|
D|-----2---2---2---2---|-----3---3---3---3---|-----2---2---2---2---|-----0---0---0---0---|
A|---0-------0---------|---0-------0---------|---3-------3---------|---2-------2---------|
E|---------------------|---------------------|---------------------|---------------------|   (2x)


And I can't fall asleep, without a little help
It takes a while to settle down, my shivered bones
Wait 'til the panics out




[Chorus] 


Guitar 1 (strumming)

  C       F
e|---0---|---0---|
B|---1---|---1---|
G|---0---|---2---|
D|---2---|---3---|
A|---3---|---0---|
E|---x---|---x---|   (4x)


It takes an ocean not to break
It takes an ocean not to break
It takes an ocean not to break
It takes an ocean not to break

Company..



Guitar 1 (strumming)

 C       F
e|---0---|---0---|
B|---1---|---1---|
G|---0---|---2---|
D|---2---|---3---|
A|---3---|---0---|
E|---x---|---x---|   (4x)



Guitar 2 (picking)

   C                               F                         C
e|---0-----------------0---------|-------0-----------0-----|---0-----------0-----0---------|
B|---1-----------1-----1---------|-------1-----------1-----|---1-----------1-----1---------|
G|-------0-----0---0-----0---0---|-----2---2---2---2---2---|-------0-----0---0-----0---0---|
D|-----2-----2-------2-----2-----|---3-------3---3---------|-----2-----2-------2-----2-----|
A|---3-----3---------------------|---0-----------0---------|---3-----3---------------------|
E|-------------------------------|-------------------------|-------------------------------|

   F
e|-------0--------0-----|
B|-------1--------1-----|
G|-----2---2----2---2---|
D|---3-------3----------|
A|---0-------0----------|
E|----------------------|   (2x)

It's quiet company
It's quiet company





[Bridge 2]

Guitar 1 (strumming)

  Am      F       C       G
e|---0---|---0---|---0---|---3---|
B|---1---|---1---|---1---|---3---|
G|---2---|---2---|---0---|---0---|
D|---2---|---3---|---2---|---0---|
A|---0---|---0---|---3---|---2---|
E|---x---|---x---|---x---|---3---|   (2x)



Guitar 2 (picking)

   Am                    F                     C                     G
e|---------------------|---------------------|-------0-------0-----|-------3-------3-----|
B|-------1-------1-----|-------1-------1-----|-------1-------1-----|-------0-------0-----|
G|-------2-------2-----|-------2-------2-----|---------------------|---------------------|
D|-----2---2---2---2---|-----3---3---3---3---|-----2---2---2---2---|-----0---0---0---0---|
A|---0-------0---------|---0-------0---------|---3-------3---------|---2-------2---------|
E|---------------------|---------------------|---------------------|---------------------|   (2x)


And I won't follow you into the rabbit hole
I said I would, but then I saw
Your shivered bones, they didn't want me too



[Chorus]

Guitar 1 & Guitar 2 (strumming)

  Am               F       C       G
e|---0---0----0---|---0---|---0---|---3---|
B|---1---0---h1---|---1---|---1---|---3---|
G|---2---2----2---|---2---|---0---|---0---|
D|---2---2----2---|---3---|---2---|---0---|
A|---0---0----0---|---0---|---3---|---2---|
E|---x---x----x---|---x---|---x---|---3---|   (8x)



It's a terrible love and I'm walkin' with spiders
It's a terrible love and I'm walkin' in
It's a terrible love and I'm walkin' with spiders
It's a terrible love and I'm walkin' in

It takes an ocean not to break
It takes an ocean not to break
It takes an ocean not to break
It takes an ocean not to break




[Outro]

Guitar 1 & Guitar 2 (strumming)

  Am               F       C       G
e|---0---0----0---|---0---|---0---|---3---|
B|---1---0---h1---|---1---|---1---|---3---|
G|---2---2----2---|---2---|---0---|---0---|
D|---2---2----2---|---3---|---2---|---0---|
A|---0---0----0---|---0---|---3---|---2---|
E|---x---x----x---|---x---|---x---|---3---|   (2x)




*************************************************************************************************************

| x   Dead note
| h   Hammer-on

*************************************************************************************************************

            
            
Suggest correction
Creating personal tab
Creating personal tab
You can edit any tab online and save it as your Personal.

You can edit, replace or remove any tab part or add personal notes – all changes will be seen only by you.

Personal tabs can be accessed anytime from any device, even offline.
Learn more »
Give kudos to tab author, rate the tab!
1 2 3 4 5
comments
print report bad tab
guest
You may want to rate the tab now too:
select rating
Wanna post a correction for this tab? Suggest correction