Oops, an error
Loading. Please wait.

Words As Weapons tab

version 1
version 1

Whole song

by Birdy
8,237 views 6 this week
3 commentsread comments
1 2 3 4 5
2 more votes to show rating
add to favorites
×
Save as Personal and add changes to this tab that will be seen only by you. Learn more ›
×
You can save this tab as Personal to edit and correct it or add notes. All changes will be seen only by you. Learn more »
launch autoscroll
font size
0
reset
how to read this tab
guitar tuner
edit
Autoscroll
slow
fast
+/-
esc
set tempo
stop
Author
Difficulty
Hey, I watched the MahoganySessions video of Words As Weapons and the only other tab was 
completely wrong, not what they play.
So I tried to copy what her guitarist plays and this is what I got.

E|---------------------------|
A|-3------3------3------3-2--|
D|---2-2----2-2----2-2-------|
g|---------------------------|
b|--3-3-3--3-3-3--3-3-3--3-3-|
e|---------------------------|

E|---------------------------|
A|-5------5------5------5-4--|
D|---4-4----4-4----4-4-------|
g|---------------------------|
b|--5-5-5--5-5-5--5-5-5--5-5-|
e|---------------------------|

So these two parts are played through the whole song, play the first and slide to the 
second and back again.
I cant figure out the very first intro part, where he plays on the 5th fret, suggestions?
Thanks for trying =]

            
            
Suggest correction
Creating personal tab
Creating personal tab
You can edit any tab online and save it as your Personal.

You can edit, replace or remove any tab part or add personal notes – all changes will be seen only by you.

Personal tabs can be accessed anytime from any device, even offline.
Learn more »
Give kudos to tab author, rate the tab!
1 2 3 4 5
comments
print report bad tab
3 comments total.
+2 reply
olococarola 10 Nov 02, 2013 07:00 AM

Actually, the right tab is:

E|---------------------------|
A|----3-----3----------------|
D|---------------------------|
g|-------------3x------------|
b|-2----2-2---------2-4-5----|
e|---------------------------|

E|---------------------------|
A|---------------------------|
D|---------------------------|
g|----4-------4---------5-4--|
b|-5-----5-5-------3x--------|
e|---------------------------|

And repeat from the top until the chorus.

Chorus:

E|---------------------------|
A|----3-----3----------------|
D|---------------------------|
g|-------------3x------------|
b|-2----2-2---------2-0------|
e|----------------------3----|

E|---------------------------|
A|----3-----3----------------|
D|---------------------------|
g|-------------3x------------|
b|--------------------0-2----|
e|-3----3-3---------3--------|

Repeat this through the whole song.

0 reply
katharina.kosti 10 Dec 02, 2013 11:44 AM

E|-----------------------------|
A|---2----2---2---------2---0--|
D|------0-------0---x3----0----|
g|-----------------------------|
b|----------3------------------|
e|-----------------------------|

E|-----------------------------|
A|---5----5---5---------5---4--|
D|------4-------4---x3----0----|
g|-----------------------------|
b|----------3------------------|
e|-----------------------------|

0 reply
nintendocraft12 16 May 28, 2016 09:42 PM

I disliked the order of the strings and it was not accurate, and these are the rest of the words I need to meet the requirement to rate this lmao

guest
You may want to rate the tab now too:
select rating
Wanna post a correction for this tab? Suggest correction