Oops, an error
Loading. Please wait.

Made In France Tab

55 views 6 this week
no commentswrite comment
1 2 3 4 5
3 more votes to show rating
add to favorites
launch autoscroll
font size
0
reset
how to read this tab
guitar tuner
Autoscroll
slow
fast
+/-
esc
set tempo
stop
Help us to improve Ultimate-Guitar.com Take our survey!
×
Author
Difficulty
advanced
It's the first of the two solos in the piece. It starts at 1:01 and is played by Sylvain Luc 

e|-------------7-8-10-7-8h10p8p7-8-------------------------------8-7-6-7--|
B|------7-8-10---------------------10~--8p7p6-7-8-7-6-------7-10----------|
G|--8h9-----------------------------------------------9-7h8---------------|
D|------------------------------------------------------------------------|
A|------------------------------------------------------------------------|
E|------------------------------------------------------------------------|

e|---------------------------------------7-12-7--10-8h10p8p7-8-7h8p7----7-|
B|-8-7-5---7-5-------------------------8-----------------------------10---|
G|--------8--------------------------9------------------------------------|
D|---------------9-7h9p7p5-9----7h10--------------------------------------|
A|------------------------------------------------------------------------|
E|------------------------------------------------------------------------|

e|------------------------------------------------------------7--|
B|-10-8-7-----7------------------------------------------7-10----|
G|--------9-8---9--------------------------------------9---------|
D|----------------9-7----7h9------------------9-7-7h10-----------|
A|--------------------10-----10-7--------7h10--------------------|
E|--------------------------------10-9-8-------------------------|

e|-14-10-12-14-15—14/17-15-14-12-11---------------------------------------|
B|----------------------------------13-12-h13p12p10-------10--------------|
G|--------------------------------------------------12-11----12------11p9-|
D|--------------------------------------------------------------9h12------|
A|------------------------------------------------------------------------|
E|------------------------------------------------------------------------|

e|--------------------------------12-15/20--19-17--19-----17-----15-----|
B|-----------------11h12h15-12h13---------------------20-----19-----17--|
G|------------9h12------------------------------------------------------|
D|-12p11-9h10-----------------------------------------------------------|
A|----------------------------------------------------------------------|
E|----------------------------------------------------------------------|

e|-14-15-17—15-14--12-11---------------------------------14-17-15--14p12--|
B|-------------------------13-12-10-------------------16------------------|
G|----------------------------------12-11-9-----14h17---------------------|
D|------------------------------------------------------------------------|
A|------------------------------------------------------------------------|
E|------------------------------------------------------------------------|

e|-10-8--7-10-7-8h10p8p7------7-----------------------------------------|
B|-----------------------10-9---10--------------------------------------|
G|---------------------------------9-7----7-9------------4-----------4--|
D|-------------------------------------10-----10-9-7-5h6---7-5-4-7-5----|
A|----------------------------------------------------------------------|
E|----------------------------------------------------------------------|

e|--------7-10/17--15-14\-11-14-12\-7-10-8---7-----------------------|
B|------8----------------------------------9---10--8p7---------------|
G|-7h11------------------------------------------------9p8p7---------|
D|-----------------------------------------------------------10-9-7--|
A|-------------------------------------------------------------------|
E|-------------------------------------------------------------------|

e|--------------------------------|
B|--------------------------------|
G|--------------------------------|
D|----------------------------2~--|
A|-10-9-7-6----------------3------|
E|----------8-7-5-3-2-0-3---------|

************************************

| h   Hammer-on
| p   Pull-off
| /   Slide up
| \   Slide down
| ~   Vibrato

************************************
Suggest correction
Give kudos to tab author, rate the tab!
1 2 3 4 5
comments
print report bad tab
guest
You may want to rate the tab now too:
select rating
Wanna post a correction for this tab? Suggest correction