Oops, an error
Loading. Please wait.

Made In France solo tab

457 views 3 this week
no commentswrite comment
1 2 3 4 5
3 more votes to show rating
add to favorites
×
Save as Personal and add changes to this tab that will be seen only by you. Learn more ›
×
You can save this tab as Personal to edit and correct it or add notes. All changes will be seen only by you. Learn more »
launch autoscroll
font size
0
reset
how to read this tab
guitar tuner
edit
Autoscroll
slow
fast
+/-
esc
set tempo
stop
[solo}

1st solo, played by Sylvain Luc 

e|-------------7-8-10-7-8h10p8p7-8-------------------------------8-7-6-7--|
B|------7-8-10---------------------10~--8p7p6-7-8-7-6-------7-10----------|
G|--8h9-----------------------------------------------9-7h8---------------|
D|------------------------------------------------------------------------|
A|------------------------------------------------------------------------|
E|------------------------------------------------------------------------|

e|---------------------------------------7-12-7--10-8h10p8p7-8-7h8p7----7-|
B|-8-7-5---7-5-------------------------8-----------------------------10---|
G|--------8--------------------------9------------------------------------|
D|---------------9-7h9p7p5-9----7h10--------------------------------------|
A|------------------------------------------------------------------------|
E|------------------------------------------------------------------------|

e|------------------------------------------------------------7--|
B|-10-8-7-----7------------------------------------------7-10----|
G|--------9-8---9--------------------------------------9---------|
D|----------------9-7----7h9------------------9-7-7h10-----------|
A|--------------------10-----10-7--------7h10--------------------|
E|--------------------------------10-9-8-------------------------|

e|-14-10-12-14-15—14/17-15-14-12-11---------------------------------------|
B|----------------------------------13-12-h13p12p10-------10--------------|
G|--------------------------------------------------12-11----12------11p9-|
D|--------------------------------------------------------------9h12------|
A|------------------------------------------------------------------------|
E|------------------------------------------------------------------------|

e|--------------------------------12-15/20--19-17--19-----17-----15-----|
B|-----------------11h12h15-12h13---------------------20-----19-----17--|
G|------------9h12------------------------------------------------------|
D|-12p11-9h10-----------------------------------------------------------|
A|----------------------------------------------------------------------|
E|----------------------------------------------------------------------|

e|-14-15-17—15-14--12-11---------------------------------14-17-15--14p12--|
B|-------------------------13-12-10-------------------16------------------|
G|----------------------------------12-11-9-----14h17---------------------|
D|------------------------------------------------------------------------|
A|------------------------------------------------------------------------|
E|------------------------------------------------------------------------|

e|-10-8--7-10-7-8h10p8p7------7-----------------------------------------|
B|-----------------------10-9---10--------------------------------------|
G|---------------------------------9-7----7-9------------4-----------4--|
D|-------------------------------------10-----10-9-7-5h6---7-5-4-7-5----|
A|----------------------------------------------------------------------|
E|----------------------------------------------------------------------|

e|--------7-10/17--15-14\-11-14-12\-7-10-8---7-----------------------|
B|------8----------------------------------9---10--8p7---------------|
G|-7h11------------------------------------------------9p8p7---------|
D|-----------------------------------------------------------10-9-7--|
A|-------------------------------------------------------------------|
E|-------------------------------------------------------------------|

e|--------------------------------|
B|--------------------------------|
G|--------------------------------|
D|----------------------------2~--|
A|-10-9-7-6----------------3------|
E|----------8-7-5-3-2-0-3---------|

2d solo, played by Bireli Lagrene

e|----------------------------------------------------------------------|
B|---------------------------------10-11-12-13-12-11-10-----------------|
G|----------------------------8-11----------------------13-12-11-9-8-9--|
D|---------------7-8-9-10-8-9-------------------------------------------|
A|-----------6-9--------------------------------------------------------|
E|-6-7-8-6-7------------------------------------------------------------|

e|----------------------------------------------------------------------|
B|----8-10-8-----------------------------12h13p12-11-12-13-11-12-13-11--|
G|-11--------11-9-8-----------------------------------------------------|
D|------------------10-9-7----------------------------------------------|
A|-------------------------10-9-7---------------------------------------|
E|--------------------------------11-7/---------------------------------|

e|----------------------------------------------------------------------|
B|-12-13-11-12-13-11-12-13-11-12-13-11-12-13-11-12--13--11--13--12--13--|
G|----------------------------------------------------------------------|
D|----------------------------------------------------------------------|
A|----------------------------------------------------------------------|
E|----------------------------------------------------------------------|

e|-----------------------------------------12--14--15--11--14--11--------------|
B|-12--13--12--13--10--12--8--10--7h8p7-5--------------------------13--10------|
G|-------------------------------------------------------------------------11--|
D|-----------------------------------------------------------------------------|
A|-----------------------------------------------------------------------------|
E|-----------------------------------------------------------------------------|

e|-14p13p12-11--------------------------------------------------------|
B|-------------13-12-10----------------------------------------12-15--|
G|----------------------12-------------------------11-14-11h12--------|
D|-------------------------13-12-10-9---------9h10--------------------|
A|------------------------------------12-9h10-------------------------|
E|--------------------------------------------------------------------|

e|-14-15-16-17-18-19--14-17-15-------14----------14-15-12--------------|
B|--------------------------------------18-17-18----------13-12--------|
G|--------------------------------------------------------------14-13--|
D|-----------------------------16-17-----------------------------------|
A|---------------------------------------------------------------------|
E|---------------------------------------------------------------------|

e|-----------------11/--13\-10\8--8h10p8-7-------------------|
B|-----------------10/-14\-11\-7-----------10-8-7-----7------|
G|----12h14p12-11--11/13\-10\--8------------------9-8---8-9--|
D|-14--------------------------7-----------------------------|
A|-----------------------------------------------------------|
E|-----------------------------------------------------------|

e|------------------------10-8-7------7-10-8----------------7-8h10p8--|
B|--------8p7---7h8p7-6-7------------------------8-12-11-10-----------|
G|------9-----9-------------------7----------8h9----------------------|
D|-7-10-----------------------------9---------------------------------|
A|--------------------------------------------------------------------|
E|--------------------------------------------------------------------|

e|-8---------------------------------7-12-14-15-11-14-12--------------|
B|---10p7--------------------------8---------------------13-12--------|
G|--------8----------------------9-----------------------------14-13--|
D|----------10p7---------------9--------------------------------------|
A|---------------9p6------7-10----------------------------------------|
E|-------------------8-7~---------------------------------------------|

e|-----------------10-14-12-10----12-9-10-0-8h10p8-7/12h13p12-11h12p11--|
B|--------------13-------------14---------------------------------------|
G|----12--11-14---------------------------------------------------------|
D|-14-------------------------------------------------------------------|
A|----------------------------------------------------------------------|
E|----------------------------------------------------------------------|

e|-10h11p10-9h10p9-8h9p8-7h8p7-6h7p6-5h6p5-4h5p4-3h4p3-2h3p2-1h2p1--|
B|------------------------------------------------------------------|
G|------------------------------------------------------------------|
D|------------------------------------------------------------------|
A|------------------------------------------------------------------|
E|------------------------------------------------------------------|

e|-0-2-3-4-5-0-2-3-4-5-0-2-3-4-5-0-5-6-7-8-0-5-6-7-8p5-------------------|
B|-----------------------------------------------------7-----------------|
G|-------------------------------------------------------8p5---8p5-------|
D|-----------------------------------------------------------7-----7-4~--|
A|-----------------------------------------------------------------------|
E|-----------------------------------------------------------------------|

                                        TP----| 
e|--------------------------11-12-13-14-15/////19-14-17-15-------14-----|
B|--------------------12h15-----------------------------------------18--|
G|--------11-14-11h12---------------------------------------------------|
D|-----12--------------------------------------------------16-17--------|
A|-14-------------------------------------------------------------------|
E|----------------------------------------------------------------------|

e|----------------15----------------------------------------------------------|
B|-17-16-15-14-13----12-11-10-8h10p8-7---------7------------------------------|
G|-------------------------------------9-6-7h8--------------------------------|
D|-----------------------------------------------10-8h9-7---------------------|
A|--------------------------------------------------------10-9-7-10-7-0-6-7~--|
E|----------------------------------------------------------------------------|

************************************

| h   Hammer-on
| p   Pull-off
| /   Slide up
| \   Slide down
| ~   Vibrato
| TP  Tremolo Picking

************************************

            
            
Suggest correction
Creating personal tab
Creating personal tab
You can edit any tab online and save it as your Personal.

You can edit, replace or remove any tab part or add personal notes – all changes will be seen only by you.

Personal tabs can be accessed anytime from any device, even offline.
Learn more »
Give kudos to tab author, rate the tab!
1 2 3 4 5
comments
print report bad tab
guest
You may want to rate the tab now too:
select rating
Wanna post a correction for this tab? Suggest correction