Oops, an error
Loading. Please wait.

The Way I Do tab

55 views 3 this week
no commentswrite comment
1 2 3 4 5
2 more votes to show rating
add to favorites
×
Save as Personal and add changes to this tab that will be seen only by you. Learn more ›
×
You can save this tab as Personal to edit and correct it or add notes. All changes will be seen only by you. Learn more »
launch autoscroll
font size
0
reset
how to read this tab
guitar tuner
edit
Autoscroll
slow
fast
+/-
esc
set tempo
stop
Bishop Briggs - 'The Way I Do' Live on triple j
https://www.youtube.com/watch?v=qSgTVicsp0Q

listen to the song link for timing.

song structure is very simple
ABAB
outro just extends last chorus

If you listen closely you'll hear the guitarist plucking everyother chord differently 
by emphasizing the D and G strings, then the G and B strings,
and muting/adding notes in the bassline but it all sounds improvised so just have fun with it

[Intro]
E|------------------------|------------------------|------------------------|------------------------|
B|-6-----6-----6-----6----|-6-----6-----6-----6----|-1-----1-----1-----1----|-5-----5-----5-----5----|
G|-7-----7-----7-----7----|-7-----7-----7-----7----|-2-----2-----2-----2----|-6-----6-----6-----6----|
D|-7-----7-----7-----7----|-7-----7-----7-----7----|-3-----3-----3-----3----|-7-----7-----7-----7----|
A|-5--5-----5-----5-----5-|----5-----5-----5-------|------------------------|------------------------|
E|------------------------|------------------------|----1-----1-----1-----1-/-5--5-----5-----5-------|
  Dm     Dm    Dm    Dm     Dm    Dm    Dm    Dm     F     F     F     F      A     A     A     A
                
[Verse] (play 3 times)
E|------------------------|------------------------|------------------------|------------------------|
B|-6-----6-----6-----6----|-6-----6-----6-----6----|-1-----1-----1-----1----|-5-----5-----5-----5----|
G|-7-----7-----7-----7----|-7-----7-----7-----7----|-2-----2-----2-----2----|-6-----6-----6-----6----|
D|-7-----7-----7-----7----|-7-----7-----7-----7----|-3-----3-----3-----3----|-7-----7-----7-----7----|
A|-5--5-----5-----5-----5-|----5-----5-----5-------|------------------------|------------------------|
E|------------------------|------------------------|----1-----1-----1-----1-/-5--5-----5-----5-------|
  Dm     Dm    Dm    Dm     Dm    Dm    Dm    Dm     F     F     F     F      A     A     A     A

[Chorus] (play 4 times)
E|------------------------|------------------------|-------------5----------|------------------------|
B|-6-----6-----6-----6----|-3-----3-----3-----3----|-------6-----6-----6----|-1-----1-----1-----1----|
G|-7-----7-----7-----7----|-3-----3-----3-----3----|-------7-----7-----7----|-2-----2-----2-----2----|
D|-8-----8-----8-----8----|-5-----5-----5-----5----|----7--------------7----|-3-----3-----3-----3----|
A|------------------------|------------------------3/5--------5-----5-------|------------------------|
E|-6--6-----6-----6-------|-3--3-----3-----3-----3-|------------------------|----1-----1-----1-------|
   Bb    Bb    Bb    Bb     Gm    Gm    Gm    Gm     Dm    Dm    Dm    Dm     F     F     F     F 


***********************************

| / Slide-up

***********************************

            
            
Suggest correction
Creating personal tab
Creating personal tab
You can edit any tab online and save it as your Personal.

You can edit, replace or remove any tab part or add personal notes – all changes will be seen only by you.

Personal tabs can be accessed anytime from any device, even offline.
Learn more »
Give kudos to tab author, rate the tab!
1 2 3 4 5
comments
print report bad tab
guest
You may want to rate the tab now too:
select rating
Wanna post a correction for this tab? Suggest correction