Oops, an error
Loading. Please wait.

Switzerland Tab

version 1
version 1

Whole song

7,487 views 36 this week
no commentswrite comment
1 2 3 4 5
accurate
x 3
add to favorites
launch autoscroll
font size
0
reset
how to read this tab
guitar tuner
Tab Pro tools
  • play this tab
  • loop segment
  • change instrument
  • show fretboard
  • metronome
×
Best way to learn
"Switzerland"
Autoscroll
slow
fast
+/-
esc
set tempo
stop
Contributor
|--------------------------------------------|
|------------SWITZERLAND - Bison-------------|
|--------------------------------------------|

Tabbed by: Bradley Nemitz


[intro]

(play this riff over the verses too)

E

e|--12---12--11----------------------------|
B|---------------14--12--14---12------12---|
G|--------------------------------13-------|
D|-----------------------------------------|
A|-----------------------------------------|
E|-----------------------------------------|

e|-----------------------------------------|
B|-----------12----------------------------|
G|--13---13------13--11--13---11-----------|
D|-------------------------------14--------|
A|-----------------------------------------|
E|-----------------------------------------|


[verse 1]

E
We tried to sleep up in the banks of snow
But soon discovered it was far too cold
So we then retreated into town
To find a place where there was level ground


[pre-chorus]

A
Oh
E
Call home


[chorus]

C#m
Oh oh Switzerland
E                                       B
You’ve taken way my breath now once again
                        C#m          
You’ve left me with a sense of compassion
E
For the ones who
B
Cant pick them selves up off the ground

C#m
Oh Switzerland
E                                       B
I never thought id have you as a friend
                        C#m             
I'm praying it was not at all pretend
E
I need you now
B
To help pick me up from off the ground


[verse 2]

E
Our drinks were hardly worth the price we paid
But we thanked God for them anyways and
With five minutes left we broke our backs
To spend more money than either of us had


[prechorus]

[chorus]


[interlude]

C#m

(It plays through this riff 4 times, and then jumps up an octave and plays it
 twice more, ending on the 14 on the B string. 

I'm pretty sure on guitar, playing where I've put it matches the lower octave
 riff in the song, so you can't really jump up like they do. 

If you want to have that octave difference, play this an octave lower, and
 then come to this.)


e|----------11-12---------11-12---------11-12---17-16-14-14h16p14-12--|
B|--14---14-------14---14-------14---14-------------------------------|
G|--------------------------------------------------------------------|
D|--------------------------------------------------------------------|
A|--------------------------------------------------------------------|
E|--------------------------------------------------------------------|


[chorus]
[chorus]
comments
We did not receive enough feedback on this tab! Please rate:
print report bad tab
1 2 3 4 5
I want to post or [tab]
guest
You may want to rate the tab now too:
select rating
Please do not post tabs as comments. Select "correction" instead!