Oops, an error
Loading. Please wait.

1975 bass

by Biters
469 views 3 this week
2 commentsread comments
1 2 3 4 5
1 last vote to show rating
add to favorites
×
Save as Personal and add changes to this tab that will be seen only by you. Learn more ›
×
You can save this tab as Personal to edit and correct it or add notes. All changes will be seen only by you. Learn more »
launch autoscroll
font size
0
reset
guitar tuner
edit
Autoscroll
slow
fast
+/-
esc
set tempo
stop
------------------------------------------------------------------------------
                              1975 - Biters
------------------------------------------------------------------------------

Tabbed by: ChrisT

From the Album: Electric Blood (2015)

Tuning: Eb Ab Db Gb

Intro (0:07)
Gb|------------------------------------------------------------------------|
Db|------------------------------------------------------------------------|
Ab|----17h19---17~-----17h19\9~--------12~-----------9\--------------------|
Eb|------------------------------------------------------------------------|

Gb|------------------------------------------------------------------------|
Db|------------------------------------------------------------------------|
Ab|----2-2-----------------------------5-5---------------------------------|
Eb|--------------------3-3---------------------------7\2~------------------|

Gb|-----------------------|
Db|-----------------------|
Ab|-----------------------|
Eb|----5~--------3-2-0----|

Verse
Gb|------------------------------------------------------------------------|
Db|o-----------------------------------------------------------------------|
Ab|o-----------4h5-----------------------------4h5-------------------------|
Eb|----5h7-------------2h3-------------5h7-------------2h3--------3-2-0----|

Gb|------------------------------------------------------------------------|
Db|-----------------------------------------------------------------------o|
Ab|------------4h5-----------------------------4h5------------------------o|
Eb|----5h7-------------2h3-------------5h7-------------2h3-----------------|

Chorus
Gb|------------------------------------------------------------------------|
Db|o-----------------------------------------------------------------------|
Ab|o---2-2-2-2-2-2-2-2-2-2-2-2-5-5-5-5-------------------------------------|
Eb|------------------------------------3-3-3-3-3-3-3-3-3-3-3-3-5---7-------|

Gb|------------------------------------------------------------------------|
Db|-----------------------------------------------------------------------o|
Ab|----5-5-5-5-5-5-5-5-5-5-5-5-7-7-7-7------------------------------------o|
Eb|------------------------------------2-2-2-2-2-2-2-2-5-5-5-5-5-5-5-5-----|

Verse
Gb|------------------------------------------------------------------------|
Db|o-----------------------------------------------------------------------|
Ab|o-----------4h5-----------------------------4h5-------------------------|
Eb|----5h7-------------2h3-------------5h7-------------2h3--------3-2-0----|

Gb|------------------------------------------------------------------------|
Db|-----------------------------------------------------------------------o|
Ab|------------4h5-----------------------------4h5------------------------o|
Eb|----5h7-------------2h3-------------5h7-------------2h3-----------------|

Chorus
Gb|------------------------------------------------------------------------|
Db|o----------------------------------------------------------------------o|
Ab|o-----------------------------------5-5-5-5-5-5-5-5--------------------o|
Eb|----0-0-0-0-0-0-0-2-3-3-3-3-3-3-3-3-----------------5-5-5-5-5-5-5-5-----|

Guitar Solo
Gb|------------------------------------------------------------------------|
Db|------------------------------------------------------------------------|
Ab|------------------------------------5-5-5-5-5-5-5-5---------------------|
Eb|----0-0-0-0-0-0-0-2-3-3-3-3-3-3-3-3-----------------5-5-5-5-5-5-5-5-----|

Gb|------------------------------------------------------------------------|
Db|------------------------------------------------------------------------|
Ab|------------------------------------------------------------------------|
Eb|----0-0-0-0-0-0-0-2-3-3-3-3-3-3-3-3-5---5---5---5---5---5---5---5-------|

Bridge (guitar only)
Gb|------------------------------------------------------------------------|
Db|------------------------------------------------------------------------|
Ab|------------------------------------------------------------------------|
Eb|------------------------------------------------------------------------|

Gb|----------------------------------7-------------------------------------|
Db|----------------------------7-8-9---------------------------------------|
Ab|----------5---5-6-7---7-8-9---------------5---5-6-7---------------------|
Eb|----5-6-7---------------------------5-6-7-------------------------------|

Chorus
Gb|------------------------------------------------------------------------|
Db|o-----------------------------------------------------------------------|
Ab|o---2-2-2-2-2-2-2-2-2-2-2-2-5-5-5-5-------------------------------------|
Eb|------------------------------------3-3-3-3-3-3-3-3-3-3-3-3-5---7-------|

Gb|------------------------------------------------------------------------|
Db|-----------------------------------------------------------------------o|
Ab|----5-5-5-5-5-5-5-5-5-5-5-5-7-7-7-7------------------------------------o|
Eb|------------------------------------2-2-2-2-2-2-2-2-5-5-5-5-5-5-5-5-----|

Gb|----------------------------------7-------------------------------7-----|
Db|----------------------------7-8-9---------------------------7-8-9-------|
Ab|----------5---5-6-7---7-8-9---------------5---5-6-7---7-8-9-------------|
Eb|----5-6-7---------------------------5-6-7-------------------------------|

Gb|---------------------------|
Db|---------------------------|
Ab|------------4h5------------|
Eb|----5h7-------------2h3----|






            
            
Suggest correction
Creating personal tab
Creating personal tab
You can edit any tab online and save it as your Personal.

You can edit, replace or remove any tab part or add personal notes – all changes will be seen only by you.

Personal tabs can be accessed anytime from any device, even offline.
Learn more »
Give kudos to tab author, rate the tab!
1 2 3 4 5
comments
print report bad tab
2 comments total.
0 reply
samuel11richardson 10 Apr 14, 2017 08:43 AM

In the chorus I think it actually goes 5 on the first string to 7, instead of 5 on the first string to 3 on the second.

0 reply
xxxxChrisTxxxx [tm] 10,233 Apr 14, 2017 06:35 PM

Yeah, you're right, will edit it.
Thanks for the ratings :)

guest
You may want to rate the tab now too:
select rating
Wanna post a correction for this tab? Suggest correction