Oops, an error
Loading. Please wait.

The Present Tab

37 views 1 this week
no commentswrite comment
1 2 3 4 5
3 more votes to show rating
add to favorites
launch autoscroll
font size
0
reset
how to read this tab
guitar tuner
Autoscroll
slow
fast
+/-
esc
set tempo
stop
Help us to improve Ultimate-Guitar.com Take our survey!
×
Author
Difficulty
About this tab version
Relatively easy to word and concise. Was this info helpful? Yes No
[Intro]

 Guitar w/ delay
e|----9-------9---repeat-------------------------------------------------------|
B|---9--9---9------------------------------------------------------------------|
G|-6------6---------------6-9--------------------------------------------------|
D|-----------------------------------------------------------------------------|
A|-----------------------------------------------------------------------------|
E|-----------------------------------------------------------------------------|


e|-----------------------------------------------------------------------------|
B|-----------------------------------------------------------------------------|
G|-----------------------------------------------------------------------------|
D|-----------------------------------------------------------------------------|
A|-----------------------------------------------------------------------------|
E|-5-------2-------6-------9----------repeat-----------------------------------|

(Variation played every now and then)

e|-----------------------------------------------------------------------------|
B|-----------------------------------------------------------------------------|
G|-----------------------------------------------------------------------------|
D|-----------------------------------------------------------------------------|
A|-----------------------------------------------------------------------------|
E|-5------2-------9------------------------------------------------------------|


 Ending Riff
e|-----------------------------------------------------------------------------|
B|-----------------------------------------------------------------------------|
G|-9---8-----------------------------------------------------------------------|
D|-9---8-----------------------------------------------------------------------|
A|-7---6-----------------------------------------------------------------------|
E|-----------------------------------------------------------------------------|


[Verse]

e|-----------------------------------------------------------------------------|
B|-----------------------------------------------------------------------------|
G|-----------------------------------------------------------------------------|
D|-7----------4--------8--------11----------------------------------------------|
A|-7----------4--------8--------11---------------------------------------------|
E|-5----------2--------6--------9-----------repeat----------------------------|

e|-----------------------------------------------------------------------------|
B|-----------------------------------------------------------------------------|
G|-----------------------------------------------------------------------------|
D|-7---------4---------11------------------------------------------------------|
A|-7---------4---------11------------------------------------------------------|
E|-5---------2---------9-------------------------------------------------------|


[Chorus]

e|-----------------------------------------------------------------------------|
B|-----------------------------------------------------------------------------|
G|-----------------------------------------------------------------------------|
D|-12-------7---------12-------7--------4-------11---------12-------7----------|
A|-12-------7---------12-------7--------4-------11---------12-------7----------|
E|-10-------5---------10-------5--------2-------9----------10-------5----------|

e|-----------------------------------------------------------------------------|
B|-----------------------------------------------------------------------------|
G|-----------------------------------------------------------------------------|
D|-11-------------7--9---------------------------------------------------------|
A|-11-------------7--9--9------------------------------------------------------|
E|-9--------------------9------------------------------------------------------|


[Verse]

e|-----------------------------------------------------------------------------|
B|-----------------------------------------------------------------------------|
G|-----------------------------------------------------------------------------|
D|-----------------------------------------------------------------------------|
A|-7----------4--------8--------11---------------------------------------------|
E|-5----------2--------6--------9------------PM--------------------------------|

e|-----------------------------------------------------------------------------|
B|-----------------------------------------------------------------------------|
G|-----------------------------------------------------------------------------|
D|-7----------4--------8--------11----------------------------------------------|
A|-7----------4--------8--------11---------------------------------------------|
E|-5----------2--------6--------9-----------repeat----------------------------|

 Verse Variation "Cause my mind ain't ready for the apocalypse
e|-----------------------------------------------------------------------------|
B|-----------------------------------------------------------------------------|
G|-----------------------------------------------------------------------------|
D|-7---------4---------11------------12----------------------------------------|
A|-7---------4---------11------------12----------------------------------------|
E|-5---------2---------9-------------10----------------------------------------|

e|-----------------------------------------------------------------------------|
B|-----------------------------------------------------------------------------|
G|-----------------------------------------------------------------------------|
D|-7---------4---------11------------------------------------------------------|
A|-7---------4---------11------------------------------------------------------|
E|-5---------2---------9-------------------------------------------------------|


[Chorus]

e|-----------------------------------------------------------------------------|
B|-----------------------------------------------------------------------------|
G|-----------------------------------------------------------------------------|
D|-12-------7---------12-------7--------4-------11---------12-------7----------|
A|-12-------7---------12-------7--------4-------11---------12-------7----------|
E|-10-------5---------10-------5--------2-------9----------10-------5----------|

e|-----------------------------------------------------------------------------|
B|-----------------------------------------------------------------------------|
G|-----------------------------------------------------------------------------|
D|-11-------------7--9---------------------------------------------------------|
A|-11-------------7--9--9------------------------------------------------------|
E|-9--------------------9------------------------------------------------------|


[Outro]

e|-----------------------------------------------------------------------------|
B|-----------------------------------------------------------------------------|
G|-----------------------------------------------------------------------------|
D|-7--9------------------------------------------------------------------------|
A|-7--9--9---------------------------------------------------------------------|
E|-------9--repeat-------------------------------------------------------------|

Do not take the repeat marking literally they're indicators but not literal.
Suggest correction
Give kudos to tab author, rate the tab!
1 2 3 4 5
comments
print report bad tab
guest
You may want to rate the tab now too:
select rating
Wanna post a correction for this tab? Suggest correction