Oops, an error
Loading. Please wait.

Dancing Dolls Of Porcelain Tab

4 views 3 this week
no commentswrite comment
1 2 3 4 5
3 more votes to show rating
add to favorites
launch autoscroll
font size
0
reset
how to read this tab
guitar tuner
Autoscroll
slow
fast
+/-
esc
set tempo
stop
Help us to improve Ultimate-Guitar.com Take our survey!
×
Author
Difficulty
intermediate
About this tab version
This is the first tab for this song on Ultimate Guitar, it is detailed 100% correct. Here is a link to the song https://www.youtube.com/watch?v=01fuxZFLj_s ENJOY. Was this info helpful? Yes No
The last lick before the singing comes back in, after the chorus can be played like:
 
e|-----------------------|
B|-----------------------|
G|-----------------------|
D|2---34--5--6-----------|
A|-----------------6b----|
E|--------------0--------|

I just prefer the flow of the one I put in the Tab so anyway, listen to the song for strumming patterns
however I have put in some counts above certain tricky bits using the "1 and 2 and..." tempo.
Also you can play the verse with a pick and play all down strokes (which he does) but I find that 
harder to sing at the same time with, so if I play with a pick I alternate down up down up. But I usually
fingerpick when playing this song using my thumb for the bass and fingers 1 and 2 for the up stroke.

Be sure to palm mute all bass notes in the verses.

Have fun learning this extremely clever song about having children!

[Intro]

e|---------------------------------------------------------------------------|
B|---------------------------------------------------------------------------|
G|---2-----2-----2-----2-----2-----2-----2-----2-----------------------------|
D|---2-----2-----2-----2-----2-----2-----2-----2-----------------------------| }x5 ("Hey"s come in after x2)
A|0-----3-----0-----3-----0-----3-----0-----3--------------------------------|     then|
E|---------------------------------------------------------------------------|         |
                                                                                       | 
e|---------------------------------------------------------------------------|         |
B|---------------------------------------------------------------------------| <========
G|---2-----2-----2-----2-----2-----2-----------------------------------------|
D|---2-----2-----2-----2-----2-----2-----------------------------------------| 
A|0-----3-----0-----3-----0-----3-----0-----6b-------------------------------|
E|---------------------------------------------------------------------------|




[Verse]


 "Saaad            is the world       when the   wiiiives      are made to..
e|---------------------------------------------------------------------------|
B|---------------------------------------------------3-----3-----3-----3-----|
G|---2-----2-----2-----2-----2-----2-----2-----2-----2-----2-----2-----2-----|
D|---2-----2-----2-----2-----2-----2-----2-----2--0-----------0--------------|
A|0-----3-----0-----3-----0-----3-----0-----3-----------0-----------0--------|
E|---------------------------------------------------------------------------|

..Beg                     lo-l-l-lo-lo lo-l-l-lo-lo love is dead"                        X2
e|---------------------------------------------------------------------------|
B|---------------------------3-----3-----3-----3-----------------------------|
G|---2-----2-----2-----2-----2-----2-----2-----2-----2-----2-----2-----2-----|
D|---2-----2-----2-----2--0-----------0--------------2-----2-----2-----2-----|
A|0-----3-----0-----3-----------0-----------0-----0-----3-----0-----3--------|
E|---------------------------------------------------------------------------| 

"Pa is away while they tuck the kids in bed
don-d-d-don-don-don-d-d-done by her instead"




[Pre-Chorus]
  v  ^  v  ^  v  ^  v  ^  v  v^v  v  v
  1 and 2 and 3 and 4 and 1    2    3    4 
e|x--5--x--5--x--5--x--5--5--555--5--5---|
B|x--6--x--6--x--6--x--6--5--555--5--5---|
G|x--7--x--7--x--7--x--7--5--555--5--5---|  "Money makes the house run smooth
D|x--7--x--7--x--7--x--7--7--777--7--7---|
A|x--5--x--5--x--5--x--5--7--777--7--7---|
E|x--x--x--x--x--x--x--x--5--555--5--5---|

e|x--5--x--5--x--5--x--5--5--555--5--5---|
B|x--6--x--6--x--6--x--6--5--555--5--5---|
G|x--7--x--7--x--7--x--7--5--555--5--5---| So the kids are missing out on school"
D|x--7--x--7--x--7--x--7--7--777--7--7---|
A|x--5--x--5--x--5--x--5--7--777--7--7---|
E|x--x--x--x--x--x--x--x--5--555--5--5---|
 

 "aaaaaam                I the...  who's thinking.. HEY!   Where has our...
                                       ^  v  ^  v    v       ^  v  ^  v  ^  v
                          1    2    3 and 4 and 1    2    3 and 4 and 1 and 2 and                 
e|x--5--x--5--x--5--x--5--x------------x--x--x--0----0-------x--x--x--x--x--x|
B|x--6--x--6--x--6--x--6--9------------9--9--0--1----1-------x--x--x--x--x--x| "Aa-a-aam I the only one who's
G|x--7--x--7--x--7--x--7--9------------9--9--0--2----2-------7--7--7--5--5--5| thinking this, HEY, where has
D|x--7--x--7--x--7--x--7--9------------9--9--0--2----2-------6--6--6--4--4--4| our money gone,
A|x--5--x--5--x--5--x--5--7------------7--7--x--0----0-------5--5--5--3--3--3|
E|x--x--x--x--x--x--x--x--x------------x--x--x--x----x-------x--x--x--x--x--x|
 
   

   where has our...   I   demand to .."
    ^  v  ^  v  ^  v    v    ^v  ^  v  v  v^v^  v  v  v^v^  v  v  v^v^  v   
 3 and 4 and 1 and 2    3 anda4 and 1     2     3     4     1     2     3    4
e|--x--x--x--x--x--x----x----xx--0--0--0--0000--0--0--0000--0--0--0000--0----|
B|--x--x--x--x--x--x----x----xx--0--1--1--1222--1--1--1111--1--1--1111--1----| Where has our money gone, I
G|--7--7--7--5--5--5----7----x5--0--2--2--2222--2--2--2222--2--2--2222--2----| Demand to knooooooooow."
D|--6--6--6--4--4--4----6----x4--0--2--2--2222--2--2--2222--2--2--2222--2----|
A|--5--5--5--3--3--3----5----x3--x--0--0--0000--0--0--0000--0--0--0000--0----|
E|--x--x--x--x--x--x----x----xx--x--x--x--xxxx--x--x--xxxx--x--x--xxxx--x----|




[Chorus]
  v  v  v^v^  v  v  v^v^  v  v  v^v^  v  v  v^v^  v  v  v^v^  v  v  v^v^
 "I've   been  losing      sleeeeeep     my bones are shattered from this...
e|0--0--0000--0--0--0000--0--0--0000--0--0--0000--0--0--0000--0--0--0000-----|
B|1--1--1111--1--1--1111--1--1--1111--1--1--1111--1--1--1111--1--1--1111-----| "I've been losing sleep, my 
G|2--2--2222--2--2--2222--2--2--2222--2--2--2222--2--2--2222--2--2--2222-----| bones are shattered from this
D|2--2--2222--2--2--2222--2--2--2222--2--2--2222--2--2--2222--2--2--2222-----| ...
A|0--0--0000--0--0--0000--0--0--0000--0--0--0000--0--0--0000--0--0--0000-----|
E|x--x--xxxx--x--x--xxxx--x--x--xxxx--x--x--xxxx--x--x--xxxx--x--x--xxxx-----|

 Daaaaaaaaaaaaaance, cause we're the d... porcelain     ...hoo  rah  to   their       
e|2--2--2222--2--2--2222--3-------------------3------------------------------|
B|3--3--3333--3--3--3333--3-------------------4------------------------------| ...Daaaaaaance,
G|2--2--2222--2--2--2222--0-------------------5------------------------------| Cause we're the dancing dolls 
D|0--0--0000--0--0--0000--0-------------------5------------------------------| of porcelain, we dance the 
A|0--0--0000--0--0--0000--2-------------------3-------------7----5----3----2-| Hoorah to their strings."
E|x--x--xxxx--x--x--xxxx--3-------------------x------------------------------|

strings"
e|---------------------------------------------------------------------------|
B|---------------------------------------------------------------------------|
G|------------------------2-----2-----2-----2-----2-----2--------------------|
D|2--3--0--2-----0--------2-----2-----2-----2-----2-----2---2h3p2p1-2h3p2p1--|
A|------------3-----2--0-----3-----0-----3-----0-----3-----------------------|
E|---------------------------------------------------------------------------|

e|---------------------------------------------------------------------------|
B|---------------------------------------------------------------------------|
G|---2-----2-----2-----2----------0--1---------------------------------------|
D|---2-----2-----2-----2--2---34---------------------------------------------|
A|0-----3-----0-----3----------------------6b--------------------------------|
E|--------------------------------------0------------------------------------|


                                 
[Verse 2]

  "Howl             is the sound            as we stare       up to the
e|---------------------------------------------------------------------------|
B|---------------------------------------------------3-----3-----3-----3-----|
G|---2-----2-----2-----2-----2-----2-----2-----2-----2-----2-----2-----2-----|
D|---2-----2-----2-----2-----2-----2-----2-----2--0-----------0--------------|
A|0-----3-----0-----3-----0-----3-----0-----3-----------0-----------0--------|
E|---------------------------------------------------------------------------|

 Skies             this Li-l-l-li-li Li-l-l-li-li Life is lies "                         x2
e|---------------------------------------------------------------------------|
B|---------------------------3-----3-----3-----3-----------------------------|
G|---2-----2-----2-----2-----2-----2-----2-----2-----2-----2-----2-----2-----|
D|---2-----2-----2-----2--0-----------0--------------2-----2-----2-----2-----|
A|0-----3-----0-----3-----------0-----------0-----0-----3-----0-----3--------|
E|---------------------------------------------------------------------------| 
 
"Thirst is the norm as we peer inside the vault
We receive the payment adds and injury to insult"



                                           
[Pre-Chorus]
  v  ^  v  ^  v  ^  v  ^  v  v^v  v  v
  1 and 2 and 3 and 4 and 1    2    3    4 
e|x--5--x--5--x--5--x--5--5--555--5--5---|
B|x--6--x--6--x--6--x--6--5--555--5--5---|
G|x--7--x--7--x--7--x--7--5--555--5--5---|  "If wealth could be a desert spring
D|x--7--x--7--x--7--x--7--7--777--7--7---|
A|x--5--x--5--x--5--x--5--7--777--7--7---|
E|x--x--x--x--x--x--x--x--5--555--5--5---|

e|x--5--x--5--x--5--x--5--5--555--5--5---|
B|x--6--x--6--x--6--x--6--5--555--5--5---|
G|x--7--x--7--x--7--x--7--5--555--5--5---|  And nourish drought this wasteland we live in"
D|x--7--x--7--x--7--x--7--7--777--7--7---|
A|x--5--x--5--x--5--x--5--7--777--7--7---|
E|x--x--x--x--x--x--x--x--5--555--5--5---|
 

"Aaaaaaam                 I the...  who's thinking..  HEY!  could be a...                                   

                          1    2    3 and 4 and 1    2    3 and 4 and 1 and 2 and                 
e|x--5--x--5--x--5--x--5--x------------x--x--x--0----0-------x--x--x--x--x--x|
B|x--6--x--6--x--6--x--6--9------------9--9--0--1----1-------x--x--x--x--x--x| "Aa-a-aam I the only one who's
G|x--7--x--7--x--7--x--7--9------------9--9--0--2----2-------7--7--7--5--5--5| thinking this, HEY, could be a
D|x--7--x--7--x--7--x--7--9------------9--9--0--2----2-------6--6--6--4--4--4| better place,
A|x--5--x--5--x--5--x--5--7------------7--7--x--0----0-------5--5--5--3--3--3|
E|x--x--x--x--x--x--x--x--x------------x--x--x--x----x-------x--x--x--x--x--x|


                   ...let the rapids flooow"
 3 and 4 and 1 and 2    3 anda4 and 1     2     3     4     1     2     3    4
e|--x--x--x--x--x--x----x----xx--0--0--0--0000--0--0--0000--0--0--0000--0----|
B|--x--x--x--x--x--x----x----xx--0--1--1--1222--1--1--1111--1--1--1111--1----| Could be a better place,
G|--7--7--7--5--5--5----7----x5--0--2--2--2222--2--2--2222--2--2--2222--2----| let the rapids flow."
D|--6--6--6--4--4--4----6----x4--0--2--2--2222--2--2--2222--2--2--2222--2----|
A|--5--5--5--3--3--3----5----x3--x--0--0--0000--0--0--0000--0--0--0000--0----|
E|--x--x--x--x--x--x----x----xx--x--x--x--xxxx--x--x--xxxx--x--x--xxxx--x----|





[Chorus]

 "I've   been  losing      sleeeeeep     my bones are shattered from this...
e|0--0--0000--0--0--0000--0--0--0000--0--0--0000--0--0--0000--0--0--0000-----|
B|1--1--1111--1--1--1111--1--1--1111--1--1--1111--1--1--1111--1--1--1111-----| "I've been losing sleep, my 
G|2--2--2222--2--2--2222--2--2--2222--2--2--2222--2--2--2222--2--2--2222-----| bones are shattered from this
D|2--2--2222--2--2--2222--2--2--2222--2--2--2222--2--2--2222--2--2--2222-----| ...
A|0--0--0000--0--0--0000--0--0--0000--0--0--0000--0--0--0000--0--0--0000-----|
E|x--x--xxxx--x--x--xxxx--x--x--xxxx--x--x--xxxx--x--x--xxxx--x--x--xxxx-----|

 Daaaaaaaaaaaaaance, cause we're the d... porcelain     ...hoo  rah  to   their       
e|2--2--2222--2--2--2222--3-------------------3------------------------------|
B|3--3--3333--3--3--3333--3-------------------4------------------------------| ...Daaaaaaance,
G|2--2--2222--2--2--2222--0-------------------5------------------------------| Cause we're the dancing dolls 
D|0--0--0000--0--0--0000--0-------------------5------------------------------| of porcelain, we dance the 
A|0--0--0000--0--0--0000--2-------------------3-------------7----5----3----2-| Hoorah to their strings."
E|x--x--xxxx--x--x--xxxx--3-------------------x------------------------------|

 strings"
e|---------------------------------------------------------------------------|
B|---------------------------------------------------------------------------|
G|---------------------------------------------------------------------------|
D|2--3--0--2-----0--2--------------------------------------------------------| (Go straight into bridge
A|------------3--------------------------------------------------------------|  after this  lick)
E|---------------------------------------------------------------------------|



[Bridge]

"A Pi- rou- ette-  esque march          The constitu -  tion of    this    life
e|---------------------------------------------------------------------------|
B|---------------------------3-----3-----3-----3-----------------------------| "A pirouette-esque march
G|---2-----2-----2-----2-----2-----2-----2-----2-----2-----2-----2-----2-----| The constitution of this...
D|---2-----2-----2-----2--0-----------0--------------3-----3-----3-----3-----|
A|0-----3-----0-----3-----------0-----------0-----------3-----------3--------|
E|------------------------------------------------1-----------1--------------|
             


                          v  ^  v        ^  v  ^  v  ^  v    v  ^v  ^  v  v
              cause we are...         cause no one...    pay the toll or diii                          
e|------------------------x--x--x--------x--x--x--x--x--x----x--xx--0--0--0--| ...life.
B|------------------------x--x--x--------x--x--x--x--x--x----x--xx--0--1--1--| Cause we are whipped at heart
G|---2-----2-----2-----2--5--5--5--------7--7--7--5--5--5----7--x5--0--2--2--| Cause no one wants to starve
D|---2-----2-----2-----2--4--4--4--------6--6--6--4--4--4----6--x4--0--2--2--| Pay the toll or ...
A|0-----3-----0-----3-----3--3--3--------5--5--5--3--3--3----5--x3--x--0--0--|
E|------------------------x--x--x--------x--x--x--x--x--x----x--xx--x--x--x--|
  
  v^v^  v  v  v^v^ 
..iiiiieeeee       diediediediediediedie"
e|0000--0--0--0000-----------------------------|
B|1111--1--1--1111-----------------------------| ... Diiieeee
G|2222--2--2--2222-----------2-----------------|  Die die die die die die die."
D|2222--2--2--2222--2--3--5-----5--3--2--------|
A|0000--0--0--0000-----------------------------|
E|xxxx--x--x--xxxx-----------------------------|

[Chorus]
  v  v  v^v^  v  v  v^v^  v  v  v^v^  v  v  v^v^  v  v  v^v^  v  v  v^v^
"I've   been  losing      sleeeeeep     my bones are shattered from this...
e|0--0--0000--0--0--0000--0--0--0000--0--0--0000--0--0--0000--0--0--0000-----|
B|1--1--1111--1--1--1111--1--1--1111--1--1--1111--1--1--1111--1--1--1111-----| "I've been losing sleep, my 
G|2--2--2222--2--2--2222--2--2--2222--2--2--2222--2--2--2222--2--2--2222-----| bones are shattered from this
D|2--2--2222--2--2--2222--2--2--2222--2--2--2222--2--2--2222--2--2--2222-----| ...
A|0--0--0000--0--0--0000--0--0--0000--0--0--0000--0--0--0000--0--0--0000-----|
E|x--x--xxxx--x--x--xxxx--x--x--xxxx--x--x--xxxx--x--x--xxxx--x--x--xxxx-----|

 Daaaaaaaaaaaaaance, cause we're the d... porcelain     ...hoo  rah  to   their       
e|2--2--2222--2--2--2222--3-------------------3------------------------------|
B|3--3--3333--3--3--3333--3-------------------4------------------------------| ...Daaaaaaance,
G|2--2--2222--2--2--2222--0-------------------5------------------------------| Cause we're the dancing dolls 
D|0--0--0000--0--0--0000--0-------------------5------------------------------| of porcelain, we dance the 
A|0--0--0000--0--0--0000--2-------------------3-------------7----5----3----2-| Hoorah to their strings."
E|x--x--xxxx--x--x--xxxx--3-------------------x------------------------------|


 Hoo  Rah  to their, Hoo  Rah  to their,     Striiiiings."
e|------------------------------------------0--------------------------------|
B|------------------------------------------1--------------------------------|
G|------------------------------------------2--------------------------------|
D|------------------------------------------2--------------------------------|
A|7----5----3----2----7----5----3----2------0--------------------------------|
E|------------------------------------------x--------------------------------|




************************************

| b  Bend
| x  Dead note
| h  Hammer-on
| p  Pull-off

************************************
Suggest correction
Give kudos to tab author, rate the tab!
1 2 3 4 5
comments
print report bad tab
guest
You may want to rate the tab now too:
select rating
Wanna post a correction for this tab? Suggest correction