Oops, an error
Loading. Please wait.

Love Wont Make You Cry chords

925 views 15 this week
4 commentsread comments
1 2 3 4 5
x 7
add to favorites
×
Save as Personal and add changes to this tab that will be seen only by you. Learn more ›
×
You can save this tab as Personal to edit and correct it or add notes. All changes will be seen only by you. Learn more »
launch autoscroll
font size
0
reset
transpose
0
reset
simplify chords
display chords
guitar tuner
edit
Autoscroll
slow
fast
+/-
esc
set tempo
stop
Author
Difficulty
Strumming
There is no strumming pattern for this song yet. and get +5 IQ
Please Rate!

Love Won’t Make You Cry by Bitter’s Kiss

Picking pattern for verses 1 & 3, and during solo:                                 
  D             F#            Bm             
e|---------2---|-------------|-------------|-2-----------|
B|---------3---|---------2---|---------3---|-3-----------|
G|-----2-------|-----3-------|---------4---|-------------|
D|-0-----------|-4-----------|-----4-------|-------------|
A|-------------|-------------|-2-----------|-------------|
E|-------------|-------------|-------------|-------------|
   1 & 2 & 3 &   1 & 2 & 3 &   1 & 2 & 3 &   1 & 2 & 3 &  

  Em            D             Asus4         A
e|-------------|-------------|-------------|-------------|
B|---------0---|---------3---|---------3---|-2-----------|
G|---------0---|-----2-------|---------2---|-2-----------|
D|-------------|-0-----------|-----2-------|-------------|
A|-----2-------|-------------|-0-----------|-------------|
E|-0-----------|-------------|-------------|-------------|
   1 & 2 & 3 &   1 & 2 & 3 &   1 & 2 & 3 &   1 & 2 & 3 &  

  D             F#            Bm             
e|---------2---|-------------|-------------|-2-----------|
B|---------3---|---------2---|---------3---|-3-----------|
G|-----2-------|-----3-------|---------4---|-------------|
D|-0-----------|-4-----------|-----4-------|-------------|
A|-------------|-------------|-2-----------|-------------|
E|-------------|-------------|-------------|-------------|
   1 & 2 & 3 &   1 & 2 & 3 &   1 & 2 & 3 &   1 & 2 & 3 &  

  Em            D              Asus4         A
e|-------------|-------------|-------------|-------------|
B|---------0---|---------3---|---------3---|-2-----------|
G|---------0---|-----2-------|---------2---|-2-----------|
D|-------------|-0-----------|-----2-------|-------------|
A|-----2-------|-------------|-0-----------|-------------|
E|-0-----------|-------------|-------------|-------------|
   1 & 2 & 3 &   1 & 2 & 3 &   1 & 2 & 3 &   1 & 2 & 3 &  


[Verse 1] 
(picking)

D               F#                  Bm
Love won't shed tears when the morning comes 
               Em          D             Asus4   A
Won't make you wish the sun would hide away 
D    F#       Bm
Love won't steal time 
            Em      D      Asus4   A
Or make you long for yesterday 


[Chorus] 
(strumming)

           Bm            F#                 Em            D
Love won't tear you down call you names, or laugh at your pain 
           Bm             F#                    Em            D
Love won't sacrifice your hopes and dreams, for heartache and shame
           G                       F#
Love won't beat you or burn you Or hang you out to dry 
G          D        A   Asus4  A
Love won't make you cry 
G         D         A   Asus4  A
Love won't make you cry 


e|-------------|
B|-------------|   (Actually played on
G|-------------|    a piano, but I like
D|---------0---|    it. Just a pickup
A|-0---2-------|    into the verse.)*
E|-------------|
   1 & 2 & 3 &


[Verse 2] 
(can play picking for other verses 
or strum; piano in actual song.)

D                F#               Bm
Love won't feel alone when the night falls 
                Em        D           Asus4   A
Won't find your fingers on the windowpane 
D               F#        Bm
Love won't make you worry if he's coming home 
         Em           D                 Asus4   A
Or leave you wondering whether you're to blame 


[Chorus] 
(strumming)

           Bm            F#                 Em            D
Love won't tear you down call you names, or laugh at your pain 
           Bm             F#                    Em            D
Love won't sacrifice your hopes and dreams, for heartache and shame
           G                       F#
Love won't beat you or burn you Or hang you out to dry 
G          D        A   Asus4  A
Love won't make you cry 
G         D         A   Asus4  A
Love won't make you cry 

*that pickup plays again here.

[Solo] 
(played over picking from first and third verses)
  D             F#            Bm             
e|-10~--10-10--|-10.-----9.--|-9.----------|-------------|
B|-------------|-------------|-----7~------|---------7h8-|
G|-------------|-------------|-------------|-------------|
D|-------------|-------------|-------------|-------------|
A|-------------|-------------|-------------|-------------|
E|-------------|-------------|-------------|-------------|
   1 & 2 & 3 &   1 & 2 & 3 &   1 & 2 & 3 &   1 & 2 & 3 &  
  Em            D             Asus4         A
e|-------------|-------------|-------------|-------------|
B|-10------8---|-7-----------|-------------|-------------|
G|-------------|---------7---|-9-----------|-------------|
D|-------------|-------------|-------------|-------------|
A|-------------|-------------|-------------|-------------|
E|-------------|-------------|-------------|-------------|
   1 & 2 & 3 &   1 & 2 & 3 &   1 & 2 & 3 &   1 & 2 & 3 &  
  D             F#            Bm     
e|-10----9-10--|-12--14--9---|-10----------|-------------|
B|-------------|-------------|-----12------|-------------|
G|-------------|-------------|-------------|-------------|
D|-------------|-------------|-------------|-------------|
A|-------------|-------------|-------------|-------------|
E|-------------|-------------|-------------|-------------|
   1 & 2 & 3 &   1 & 2 & 3 &   1 & 2 & 3 &   1 & 2 & 3 &  
  Em            D             Asus4         A
e|-10-----9----|-------------|-------------|-------------|
B|-------------|-12----------|-------------|-------------|
G|-------------|---------11--|-9-----------|-------------|
D|-------------|-------------|-------------|-------------|
A|-------------|-------------|-------------|-------------|
E|-------------|-------------|-------------|-------------|
   1 & 2 & 3 &   1 & 2 & 3 &   1 & 2 & 3 &   1 & 2 & 3 &  


[Bridge] 
(strumming)

F#         
Love sees no rage 
       Em                         D           A
In the passionate words it writes down on the pages 
   Bm         F#     Em
Of stories it tells so well 


[Verse 3] 
(picking, identical to first verse)

D               F#                  Bm
Love won't shed tears when the morning comes 
               Em          D             Asus4   A
Won't make you wish the sun would hide away 
D    F#       Bm
Love won't steal time 
            Em      D      Asus4   A
Or make you long for yesterday 


[Chorus] 
(strumming)

           Bm            F#                 Em            D
Love won't tear you down call you names, or laugh at your pain 
           Bm             F#                    Em            D
Love won't sacrifice your hopes and dreams, for heartache and shame
           G                       F#
Love won't beat you or burn you Or hang you out to dry 
G          D        A   Asus4  A
Love won't make you cry 
G         D         A    Asus4  A
Love won't make you cry 
Suggest correction
Creating personal tab
Creating personal tab
You can edit any tab online and save it as your Personal.

You can edit, replace or remove any tab part or add personal notes – all changes will be seen only by you.

Personal tabs can be accessed anytime from any device, even offline.
Learn more »
comments
print report bad tab
4 comments total. Showing first comments.
+1 reply
guillermopeitto 10,339 Jun 08, 2016 09:30 AM

Beautiful song, great tab.

0 reply
ianclark7 582 Jun 08, 2016 09:50 PM

Please Rate!

0 reply
celthev 10 Jul 03, 2016 05:48 AM

I've searched this tab for 1 year so thank you, it's excellent !

guest
You may want to rate the tab now too:
select rating
Wanna post a correction for this tab? Suggest correction