Oops, an error
Loading. Please wait.

Taiyou No Mannaka E To The Center Of The Sun bass

version 1
version 1

Whole song

Interactive

705 views 1 this week
no commentswrite comment
1 2 3 4 5
3 more votes to show rating
add to favorites
×
Save as Personal and add changes to this tab that will be seen only by you. Learn more ›
×
You can save this tab as Personal to edit and correct it or add notes. All changes will be seen only by you. Learn more »
launch autoscroll
font size
0
reset
guitar tuner
edit
Autoscroll
slow
fast
+/-
esc
set tempo
stop
#----------------------------------PLEASE NOTE---------------------------------#
#This file is the author's own work and represents their interpretation of the #
#song. You may only use this file for private study, scholarship, or research. #
#------------------------------------------------------------------------------##

            TAIYOU NO MANNAKA E (TO THE CENTER OF THE SUN) (Bassline)
                            As recorded by Bivattchee

Words and Music by Bivattchee
Transcribed by IQC

Gtr I (Eb Ab Db Gb) - 'Bass'
Gtr II (Eb Ab Db Gb Bb Eb) - 'Strings'
Gtr III (Eb Ab Db Gb Bb Eb) - 'Cello'

About the String Instruments in the tab: Some parts I couldn't make out, especially in measures 56 to 59. 
There might be octave differences. Other than that, is really close.

I don't believe the bass part has mistakes.

 Intro
  Q=109
 4/4
  Gtr I
  W           E E  S S E  S S E  S S E    E  E S S   E  S S  E  S S E
|----------|---------------------------|------------------------------|
|----------|---------------------------|------------------------------|
|----------|---------------------------|------------------------------|
|----------|--2-2--2-2-2--2-2-2--2-2-2-|--3--3-3-3---3--3-3--3--3-3-3-|
|
| Gtr II
| W           Q    Q      Q      Q        Q.        +Q       E  E   E
|----------|-14---17-----24-----22-----|-10--------(10)-----12-10---9-|
|----------|---------------------------|------------------------------|
|----------|-11---14-----21-----19-----|--7---------(7)------9--7---6-|
|----------|---------------------------|------------------------------|
|----------|---------------------------|------------------------------|
|----------|---------------------------|------------------------------|
|
| Gtr III
| W           Q    H             Q        E  E E     E  E    E  E   E
|----------|---------------------------|------------------------------|
|----------|---------------------------|------------------------------|
|----------|-11---14-------------9-----|--7--9-7-----6--4----2--0-----|
|----------|---------------------------|----------------------------4-|
|----------|---------------------------|------------------------------|
|----------|---------------------------|------------------------------|


   E  E S S E S  S E S S E
|--------------------------|
|--------------------------|
|--------------------------|
|--5--5-5-5-5-5--5-5-5-5-5-|
|
|  H          Q.         E
|--5-----------------------|
|-------------5----------7-|
|--2-----------------------|
|-------------2----------4-|
|--------------------------|
|--------------------------|
|
| +W
|--------------------------|
|--------------------------|
|--------------------------|
|-(4)----------------------|
|--------------------------|
|--------------------------|


  E  E E S S  S   E.    S   S   E      E E S S E  S S E  S S E
|------------------------------------|--------------------------|
|-------------4---2-----2---4---5----|--------------------------|
|-2--2-2-2-2-(2)-(2)---(2)-(2)-(2)---|--------------------------|
|------------------------------------|-2-2-2-2-2--2-2-2--2-2-2--|
|
| Q.     S S  E      E  E       S  S   E E Q      Q      Q
|------------------------------------|-----------12-----10------|
|-7------------------5--7------------|---5-7--------------------|
|--------4-6--7-----------------4--6-|-7----------9------7------|
|-4------------------2--4------------|---2-4--------------------|
|--------2-4--5-----------------2--4-|-5------------------------|
|------------------------------------|--------------------------|
|
| W                                    W
|------------------------------------|--------------------------|
|------------------------------------|--------------------------|
|------------------------------------|--------------------------|
|------------------------------------|--------------------------|
|------------------------------------|--------------------------|
|------------------------------------|--------------------------|


   E E  S S E  s s  s s  s s s s   E E S S E S S E S S E   W
|---------------------2----------|-----------------------|------|
|--------------4-2--4----4-2-----|-----------------------|------|
|----------------------------4-2-|-----------------------|------|
|--3-3--3-3-3--------------------|-5-5-5-5-5-5-5-5-5-5-5-|------|
|
|  H           E    E    E   E     W                       W
|-14----------12---10----9---5---|-----------------------|------|
|--------------------------------|-5---------------------|------|
|-11-----------9----7----6---2---|-----------------------|------|
|--------------------------------|-2---------------------|------|
|--------------------------------|-----------------------|------|
|--------------------------------|-----------------------|------|
|
|  E E  E   E  E      Q.           W                       W
|--------------------------------|-----------------------|------|
|------10---8--------------------|-----------------------|------|
|----7--------11------9----------|-----------------------|------|
|--------------------------------|-----------------------|------|
|--------------------------------|-----------------------|------|
|--------------------------------|-----------------------|------|


 Verse
  S S E S S E S S E S S E   S S E S S E S S E S S E
|-------------------------|-------------------------|
|-------------------------|-------------------------|
|-5-5-5-5-5-5-5-5-5-5-5-5-|-4-4-4-4-4-4-4-4-4-4-4-4-|
|-------------------------|-------------------------|


  S S E S S E S S E S S E   S S E S S E S S E S S E
|-------------------------|--------------------------|
|-------------------------|--------------------------|
|-2-2-2-2-2-2-2-2-2-2-2-2-|-2-2-2-2-2-2-2-2-2-4-4-4--|
|-------------------------|--------------------------|


  S S E S S E S S E S S E   S S E S S E S S E S S E
|-------------------------|-------------------------|
|-------------------------|-------------------------|
|-5-5-5-5-5-5-5-5-5-5-5-5-|-4-4-4-4-4-4-4-4-4-4-4-4-|
|-------------------------|-------------------------|
|
| Gtr III
| W                         W
|-------------------------|-------------------------|
|-------------------------|-------------------------|
|-------------------------|-------------------------|
|-------------------------|-------------------------|
|-------------------------|-------------------------|
|-------------------------|-------------------------|


  S S E S S E  S  S E S S E    H         E  E  E  E
|---------------------------|------------------------|
|---------------------------|------------------------|
|-------------------------9s|=14--------12s14-14s16--|
|-7-7-7-7-7-7--7--7-7-7-7---|------------------------|
|
| <
| H           +H              +E  E E E  E  E  E  E
|---------------------------|------------------------|
|---------------------------|------------------2--3--|
|---------------------------|------------2--4--------|
|-4-----------(4)-----------|-(4)-2-4-5--------------|
|---------------------------|------------------------|
|---------------------------|------------------------|


   E   E   E   E   E   E   E   E     E   E   E   E   E   E   E   E
|---------------------------------|---------------------------------|
|----(19)----(19)----(19)----(19)-|----(19)----(19)----(19)----(19)-|
|-17------17------17------17------|-16------16------16------16------|
|---------------------------------|---------------------------------|


   E   E   E   E   E   E   E   E     E   E   E   E   E   E   E  E
|----(14)----(14)----(14)----(14)-|----(14)----(14)----(14)-------|
|---------------------------------|-------------------------------|
|-14------14------14------14------|-14------14------14------14-16-|
|---------------------------------|-------------------------------|


  S S S S S S S S S S S S S S S S   S S S S S S S S S S S S S S S S
|---------------------------------|---------------------------------|
|---------------------------------|---------------------------------|
|-5-5-5-5-5-5-5-5-5-5-5-5-5-5-5-5-|-4-4-4-4-4-4-4-4-4-4-4-4-4-4-4-4-|
|---------------------------------|---------------------------------|
|
| Gtr II
| W                                 W
|---------------------------------|---------------------------------|
|---------------------------------|---------------------------------|
|---------------------------------|---------------------------------|
|---------------------------------|---------------------------------|
|---------------------------------|---------------------------------|
|---------------------------------|---------------------------------|


  S S  S  S  S  S  S  S  S  S  S  S  S  S  S  S   H.      Q
|-----------------------------------------------|---------------|
|-----------------------------------------------|---------------|
|-2-2--2--2--2--2--2--2--2--2--2--2--2--2--2--2-|---------------|
|-----------------------------------------------|---------7\----|
|
| <
| E   +E    +E    +E    +E    +E    +E    +E      W
|-7---(7)---(7)---(7)---(7)---(7)---(7)---(7)---|---------------|
|-----------------------------------------------|---------------|
|-4---(4)---(4)---(4)---(4)---(4)---(4)---(4)---|---------------|
|-----------------------------------------------|---------------|
|-----------------------------------------------|---------------|
|-----------------------------------------------|---------------|


 Pre-Chorus
  E. E   E.    E.   E    E.      E. E E.   E. Q  S
|-----------------------------|---------------------|
|-----------------------------|---------------------|
|-----------------------------|----------/10--9--7--|
|-3--3---3-----3----3----3----|--3--3-3-------------|
|
| Gtr II
| Q    E    E  E  E    E    E   +W
|-----------------------------|---------------------|
|-------------10--8-----------|---------------------|
|-----------7---------11----9-|-(9)-----------------|
|-----------------------------|---------------------|
|-----------------------------|---------------------|
|-----------------------------|---------------------|


   E. E E S E. E E S    E. E E E E  E   E.
|-------7--------7---|-------7----------------|
|--------------------|-----------7-(7)-(7)----|
|--5--5---5-5--5---5-|--5--5---5----5---7-----|
|--------------------|------------------------|
|
| +W                   +W
|--------------------|------------------------|
|--------------------|------------------------|
|-(9)----------------|-(9)--------------------|
|--------------------|------------------------|
|--------------------|------------------------|
|--------------------|------------------------|


   E.  E.  H     E    Q.     Q   E  Q      E. E. H       E    Q.    Q   E  Q
|------------------|--------------------|------------------|------------------|
|------------------|--------------------|------------------|-------16---------|
|-10--10--10----10s|=15-----17--15-14---|----------------7s|=14--------14-----|
|------------------|--------------------|--7--7--7---------|--------------14--|
|
|                                                   |-3--|
|  W                  Q   E  Q   Q    E   +H.       E  E E    W
|------------------|------------------5-|-(5)-------9-10-9-|--5---------------|
|------------------|--------------------|------------------|------------------|
|------------------|------------------2-|-(2)-------6--7-6-|--2---------------|
|------------------|-------------2------|------------------|------------------|
|------------------|---------3----------|------------------|------------------|
|------------------|--------------------|------------------|------------------|


  E. E.  Q  E  E  E   E. E.  Q  E  E  E   E E E E E E E E    E E E E E  Q  E
|-------------------|-------------------|-----------------|------------------|
|-------------------|-------------------|-----------------|------------------|
|-------------------|-------------------|-----------------|------------------|
|-0--0---0--0--0--0-|-2--2---2--2--2--2-|-3-3-3-3-3-3-3-3-|--5-5-5-5-5\------|
|
| E. E.  Q  E  E  E   E. E.  Q  E  E  E   W                  H       H
|----7--12--7-12-14-|----9--14--9-14-16-|-----------------|------------------|
|-5-----------------|-7-----------------|-8---------------|-10---------------|
|----4---9--4--9-11-|----6--11--6-11-13-|-----------------|------------------|
|-2-----------------|-4-----------------|-5---------------|--7---------------|
|-------------------|-------------------|-----------------|------------------|
|-------------------|-------------------|-----------------|------------------|


 Chorus
   E E S S E S S E S S E    E  E       S S E S S E S S E
|------------------------|-------------------------------|
|------------------------|-------------------------------|
|--5-5-5-5-5-5-5-5-5-5-5-|-------------------------------|
|------------------------|--5--5-------5-5-5-5-5-5-5-5-5-|
|
|  W                        E.   T  T  H           Q
|-10---------------------|-------9s10s12-----------5-----|
|------------------------|-10----------------------------|
|--7---------------------|-------6s=7s=9-----------2-----|
|------------------------|--7----------------------------|
|------------------------|-------------------------------|
|------------------------|-------------------------------|


  E E S S E S S E S S E   E E S S E s s s s s s s s
|-----------------------|-----------------2----------|
|-----------------------|-----------4-2-4---4-2------|
|-2-2-2-2-2-2-2-2-2-2-2-|-----------------------4-2--|
|-----------------------|-3-3-3-3-3------------------|
|
| W                       Q   Q     Q       Q
|-7---------------------|-----3-----5-------7--------|
|-----------------------|-7--------------------------|
|-4---------------------|-----0-----2-------4--------|
|-----------------------|-4--------------------------|
|-----------------------|----------------------------|
|-----------------------|----------------------------|


   E  E  S   S E S S E S S E
|----------------------------|
|----------------------------|
|--5--5--5---5-5-5-5-5-5-5-5-|
|----------------------------|
|
|  T  T  E.  H   Q
|-10s12s14-------------------|
|-----------10---8-----------|
|--7s=9s11-------------------|
|------------7---5-----------|
|----------------------------|
|----------------------------|


   E E S  S  E    S  S E S S E   E E S  S  E S S E S S E
|------------------------------|-------------------------|
|------------------------------|-------------------------|
|------------------------------|-2-2-2--2--2-2-2-2-2-2-2-|
|--5-5-5--5--5----5--5-5-5-5-5-|-------------------------|
|
|  Q   T  T  E.  +Q  Q           H     +Q.     S S
|------9s10s12--(12)-5---------|-7-----(7)-----3-5-------|
|-10---------------------------|-------------------------|
|------6s=7s=9---(9)-2---------|-4-----(4)-----0-2-------|
|--7---------------------------|-------------------------|
|------------------------------|-------------------------|
|------------------------------|-------------------------|


  E E S S E S  S E  S  S E    E S E S S S S S S S S S S S
|--------------------------|------7-----------------------|
|--------------------------|------------------------------|
|--------------------------|--5-5---5-5-5-5-5-5-5-5-5-4-5-|
|-3-3-3-3-3-3--3-3--3--3-3-|------------------------------|
|
| E S S E S S  E S  S  Q      W
|-7-5-7-9-7-9-10-9-10-12---|-10---------------------------|
|--------------------------|------------------------------|
|-4-2-4-6-4-6--7-6--7--9---|--7---------------------------|
|--------------------------|------------------------------|
|--------------------------|--5---------------------------|
|--------------------------|------------------------------|
|
| Gtr III
| W                           W
|--------------------------|------------------------------|
|--------------------------|------------------------------|
|--------------------------|------------------------------|
|--------------------------|------------------------------|
|--------------------------|------------------------------|
|--------------------------|------------------------------|


                        ~~~~~
   +S  S S S S S S S a  E  E  Q
|--------------------------------|
|--------------------------------|
|--(5)-5-5-5-5-5-5-5-5s17-17-16--|
|--------------------------------|
|
|  +W
|-(10)---------------------------|
|--------------------------------|
|--(7)---------------------------|
|--------------------------------|
|--(5)---------------------------|
|--------------------------------|
|
|   H        S S S S S  S  S  S
|--------------------------------|
|----------------7---7-----5-----|
|--------------4---4----4-----4--|
|--------------------------------|
|--------------------------------|
|--------------------------------|


 Bridge
   E S S  S S S S  S S S S  S S S S
|-----------------------------------|
|-----------------------------------|
|-----------------------------------|
|--2-2-2--2-2-2-2--2-2-2-2--2-2-2-2-|
|
|  Q      Q        Q        Q
|-14-----17-------24-------22-------|
|-----------------------------------|
|-11-----14-------21-------19-------|
|-----------------------------------|
|-----------------------------------|
|-----------------------------------|
|
|  Q      H                 Q
|-----------------------------------|
|-----------------------------------|
|-11-----14-----------------9-------|
|-----------------------------------|
|-----------------------------------|
|-----------------------------------|


   E  S S S S   S  S S S  S S  S S S S    E  S S S S S S S  S S S S S S S
|--------------------------------------|-----------------------------------|
|--------------------------------------|-----------------------------------|
|--------------------------------------|-----------------------------------|
|--3--3-3-3-3---3--3-3-3--3-3--3-3-3-3-|--5--5-5-5-5-5-5-5--5-5-5-5-5-5-5--|
|
|  Q.          +Q         E    E   E      H              Q.           E
|-10----------(10)-------12---10---9---|--5--------------------------------|
|--------------------------------------|-----------------5------------7----|
|--7-----------(7)--------9----7---6---|--2--------------------------------|
|--------------------------------------|-----------------2------------4----|
|--------------------------------------|-----------------------------------|
|--------------------------------------|-----------------------------------|
|
|  E  E   E     E    E    E    E   E     +W
|--------------------------------------|-----------------------------------|
|--------------------------------------|-----------------------------------|
|--7--9---7-----6----4----2----0-------|-----------------------------------|
|----------------------------------4---|-(4)-------------------------------|
|--------------------------------------|-----------------------------------|
|--------------------------------------|-----------------------------------|


  E  S S S S S S S S  S   S  S S E     E S S S S S S  S S S S  S S S S
|------------------------------------|----------------------------------|
|----------------4-2-(2)-(2)-2-4-5---|----------------------------------|
|-2--2-2-2-2-2-2------2---2----------|----------------------------------|
|------------------------------------|-2-2-2-2-2-2-2--2-2-2-2--2-2-2-2\-|
|
| Q.         S S E    E      E   S S   E E   Q        Q        Q
|------------------------------------|---------------12-------10--------|
|-7-------------------5------7-------|---5---7--------------------------|
|------------4-6-7---------------4-6-|-7--------------9--------7--------|
|-4-------------------2------4-------|---2---4--------------------------|
|------------2-4-5---------------2-4-|-5--------------------------------|
|------------------------------------|----------------------------------|
|
| W                                    W
|------------------------------------|----------------------------------|
|------------------------------------|----------------------------------|
|------------------------------------|----------------------------------|
|------------------------------------|----------------------------------|
|------------------------------------|----------------------------------|
|------------------------------------|----------------------------------|


   E S S  S S S S  S S  S  S S S S S
|--------------------------------------|
|--------------------------------------|
|--------------------------------------|
|-/3-3-3--3-3-3-3--3-3--3--3-3-3-3-3\--|
|
|  H               E    E    E   E
|-14--------------12---10----9---5-----|
|--------------------------------------|
|-11---------------9----7----6---2-----|
|--------------------------------------|
|--------------------------------------|
|--------------------------------------|
|
|  E E    E   E    E    Q.
|--------------------------------------|
|--------10---8------------------------|
|----7------------11----9--------------|
|--------------------------------------|
|--------------------------------------|
|--------------------------------------|


   E S S S S S S S  S S S S S S S   E S S S S S S  E  E  E  E
|---------------------------------|-----------------------------|
|---------------------------------|-----------------------------|
|---------------------------------|---------------14p12h14p12S==|
|-/5-5-5-5-5-5-5-5--5-5-5-5-5-5-5-|-7-7-7-7-7-7-7---------------|
|
|  H             Q.           E     W
|--5------------------------------|-----------------------------|
|----------------5------------7---|-7---------------------------|
|--2------------------------------|-----------------------------|
|----------------2------------4---|-4---------------------------|
|---------------------------------|-----------------------------|
|---------------------------------|-----------------------------|
|
|  W                                W
|---------------------------------|-----------------------------|
|---------------------------------|-----------------------------|
|---------------------------------|-----------------------------|
|---------------------------------|-----------------------------|
|---------------------------------|-----------------------------|
|---------------------------------|-----------------------------|


 Pre-Chorus
   Q.    Q   E  E  E    Q.    Q   a  E  E  E
|--------------------|-----------------------|
|-------17-----17----|-------16--16s19-17-16-|
|-15--------15----15-|-14--------------------|
|--------------------|-----------------------|


   E.  E.  Q   E  E  E    E.  E.  Q   E  E E
|----------------------|----------------------|
|---------14-----------|---------16-----------|
|-12--12------12-10-12-|-14--14------12-14----|
|----------------------|-------------------7--|


                                          <
  E. E.  Q  E  Q      E. E.  Q  E  Q      E E E E E E E E   S S S S E H    E
|-------------------|-------------------|-----------------|------------------|
|-------------------|-------------------|-----------------|------------------|
|-------------------|-------------------|-----------------|------------------|
|-0--0---0--0--0----|-2--2---2--2--2----|-3-3-3-3-3-3-3-3-|-5-5---5-5--------|
|
| Gtr II
| E. E.  Q  E  E  E   E. E.  Q  E  E  E   W                 W
|----7--12--7-12-14-|----9--14--9-14-17-|-----------------|------------------|
|-5-----------------|-7-----------------|-8---------------|------------------|
|----4---9--4--9-11-|----6--11--6-11-13-|-----------------|------------------|
|-2-----------------|-4-----------------|-5---------------|------------------|
|-------------------|-------------------|-----------------|------------------|
|-------------------|-------------------|-----------------|------------------|


 Out-Chorus
    E  E  H     Q     S S S S H     Q     S S S S H    S S S S
|------------------|-------------------|-----------------------|
|------------------|-------------------|-----------------------|
|------------------|-------------------|-----------------------|
|-/10-10-10\-------|-/5-5-5-5-5\-------|-/7-7-7-7-7----7-7-7-7-|
|
| Gtr III
|   W                 W                   W
|------------------|-------------------|-----------------------|
|------------------|-------------------|-----------------------|
|------------------|-------------------|-----------------------|
|------------------|-------------------|-----------------------|
|------------------|-------------------|-----------------------|
|------------------|-------------------|-----------------------|


  S S S S S S S S S   S   S   S   S   S   S   S
|-------------------------------------------------|
|-------------------------------------------------|
|-------------------------------------------------|
|-3-3-3-3-3-3-3-3-3---3---3---3---3---3---3---3---|
|
|                 |------6------| |------6------|
| H               S S   S S S   S S S   S S S   S
|-------------------------------------------------|
|-------------------------------------------------|
|-------------------------------------------------|
|-------------------------------2---2---4-2-4---5-|
|-----------------2-4---5-4-5-----5---------------|
|-------------------------------------------------|


   E E S S E S S E S S E    S  S E       S S E  S S E  S     S  E
|------------------------|----------------------------------------|
|------------------------|----------------------------------------|
|--5-5-5-5-5-5-5-5-5-5-5-|--0--0-0-------0-0-0--1-1-1--1-----1--1-|
|------------------------|----------------------------------------|
|
| Gtr II
|  W                        E.     T  T  Q      Q      T  T  E.
|-10---------------------|---------9s10s12-----17-----16s14s12----|
|------------------------|-10-------------------------------------|
|--7---------------------|---------6s=7s=9-----14-----13s11s=9----|
|------------------------|--7-------------------------------------|
|------------------------|----------------------------------------|
|------------------------|----------------------------------------|


   E E S  S E S S E S S E   S S E S S S S  S  S  S  S  S  S  S  S
|-------------------------|-----------------------------------------|
|-------------------------|-----------------------------------------|
|--2-2-2--2-2-2-2-2-2-2-2-|-------------5s10-10-10-10-10-10-10-10---|
|-------------------------|-3-3-3-3-3-3-----------------------------|
|
|  Q   H.                   Q     Q        Q           Q
|-10---5------------------|-------3--------5-----------7------------|
|-------------------------|-7---------------------------------------|
|--7---2------------------|-------0--------2-----------4------------|
|-------------------------|-4---------------------------------------|
|-------------------------|-----------------------------------------|
|-------------------------|-----------------------------------------|


   E E  S     S  E   S  S E  S S E    S  S E       S S E  S S E  S     S  E
|----------------------------------|----------------------------------------|
|----------------------------------|----------------------------------------|
|--5-5--5-----5--5---5--5-5--5-5-5-|--0--0-0-------0-0-0--1-1-1--1-----1--1-|
|----------------------------------|----------------------------------------|
|
|  Q    T  T  E.    +Q       Q        E.     T  T  Q      Q      T  T  E.
|-14---16s14s12----(12)-----10-----|---------9s10s12-----17-----16s14s12----|
|----------------------------------|-10-------------------------------------|
|-11---13s11s=9-----(9)------7-----|---------6s=7s=9-----14-----13s11s=9----|
|----------------------------------|--7-------------------------------------|
|----------------------------------|----------------------------------------|
|----------------------------------|----------------------------------------|


   E E S  S E S S  E  S S E     S S E   S S S S  S  S  S  S  S  S  S  S
|-----------------------------|--------------------------------------------|
|-----------------------------|--------------------------------------------|
|--2-2-2--2-2-2-2--2--2-2-2---|---------------5s10-10-10-10-10-10-10-10----|
|-----------------------------|-3-3-3---3-3-3------------------------------|
|
|  Q   Q.         +Q      S S   E   S S E   S S  E     S  S  Q
|-10---5----------(5)-----3-5-|-7---5-7-9---7-9-10-----9-10-12-------------|
|-----------------------------|--------------------------------------------|
|--7---2----------(2)-----0-2-|-4---2-4-6---4-6--7-----6--7--9-------------|
|-----------------------------|--------------------------------------------|
|-----------------------------|--------------------------------------------|
|-----------------------------|--------------------------------------------|


   S S E S S E S S E S S E     S  S E S S E S S E S S E
|--------------------------|----------------------------|
|--------------------------|----------------------------|
|--------------------------|----------------------------|
|--5-5-5-5-5-5-5-5-5-5-5-5-|---5--5-5-5-5-5-5-5-5-5-5-5-|
|
|  W                          +W
|--------------------------|----------------------------|
|-10-----------------------|-(10)-----------------------|
|--------------------------|----------------------------|
|--7-----------------------|--(7)-----------------------|
|--------------------------|----------------------------|
|--------------------------|----------------------------|


   S S E S S S S  S  S  S  S  S  S  S  S
|-----------------------------------------|
|-----------------------------------------|
|--------------6s13-13-13-13-13-13-13-13--|
|--6-6-6-6-6-6----------------------------|
|
|  W
|-----------------------------------------|
|-11--------------------------------------|
|-----------------------------------------|
|--8--------------------------------------|
|-----------------------------------------|
|--6--------------------------------------|


   S S E S S S S  S  S  S  S  S  S  S  S    Q   H.         +W
|-----------------------------------------|-------------|---------*|
|-----------------------------------------|-------------|---------*|
|--------------8s15-15-15-15-15-15-15-15\-|-------------|---------*|
|--8-8-8-8-8-8----------------------------|----10-------|-(10)----*|
|
|  W                                        W               W
|-----------------------------------------|-------------|---------*|
|-13--------------------------------------|-------------|---------*|
|-----------------------------------------|-------------|---------*|
|-10--------------------------------------|-------------|---------*|
|-----------------------------------------|-------------|---------*|
|--8--------------------------------------|-------------|---------*|


Duration Legend
---------------
W - whole; H - half; Q - quarter; E - 8th; S - 16th; T - 32nd; X - 64th; a - acciaccatura
+ - note tied to previous; . - note dotted; .. - note double dotted
Uncapitalized letters represent notes that are staccato (1/2 duration)
Irregular groupings are notated above the duration line
Duration letters will always appear directly above the note/fret number it represents the
duration for.  Duration letters with no fret number below them represent rests.  Multi-
bar rests are notated in the form Wxn, where n is the number of bars to rest for.  Low
melody durations appear below the staff

Tablature Legend
----------------
 h   - hammer-on
 p   - pull-off
 b   - bend
 pb  - pre-bend
 r   - bend release (if no number after the r, then release immediately)
 /\  - slide into or out of (from/to "nowhere")
 s   - legato slide
 S   - shift slide
  - natural harmonic
[n]  - artificial harmonic
n(n) - tapped harmonic
 ~   - vibrato
 tr  - trill
 T   - tap
 TP  - trem. picking
 PM  - palm muting
\n/  - tremolo bar dip; n = amount to dip
 \n  - tremolo bar down
 n/  - tremolo bar up
/n\  - tremolo bar inverted dip
 =   - hold bend; also acts as connecting device for hammers/pulls
 <>  - volume swell (louder/softer)
 x   - on rhythm slash represents muted slash
 o   - on rhythm slash represents single note slash

Misc Legend
-----------
 |  - bar
||  - double bar
||o - repeat start
o|| - repeat end
*|  - double bar (ending)
 :  - bar (freetime)
 $  - Segno
 &  - Coda
Tempo markers -  = BPM(8/16=s8/s16), where s8 = swing 8ths, s16 = swing 16ths


***************************************************************************************
* Generated using Power Tab Editor by Brad Larsen - http://powertab.guitarnetwork.org *
***************************************************************************************
Suggest correction
Creating personal tab
Creating personal tab
You can edit any tab online and save it as your Personal.

You can edit, replace or remove any tab part or add personal notes – all changes will be seen only by you.

Personal tabs can be accessed anytime from any device, even offline.
Learn more »
Give kudos to tab author, rate the tab!
1 2 3 4 5
comments
print report bad tab
guest
You may want to rate the tab now too:
select rating
Wanna post a correction for this tab? Suggest correction