Oops, an error
Loading. Please wait.

Everybody Everybody bass

1,109 views 12 this week
no commentswrite comment
1 2 3 4 5
x 4
add to favorites
×
Save as Personal and add changes to this tab that will be seen only by you. Learn more ›
×
You can save this tab as Personal to edit and correct it or add notes. All changes will be seen only by you. Learn more »
launch autoscroll
font size
0
reset
guitar tuner
edit
Autoscroll
slow
fast
+/-
esc
set tempo
stop
Author
Difficulty
Song: Everybody, Everybody
Album: Dreamland
Artist: Black Box

I love this song, and it's really jammin to play along with on bass, enjoy!

This song is in standard tuning (E, A, D, G)

The bass comes in at 0:16

G-----------------------3----------1-3----------------------------|
D-----3--1h3h1h3-----------1h3h1h3--------------------------------|
A----------------3-2-1--------------------------------------------|
E--1--------------------------------------------------------------| 3x

G-----------------------------------------------------------------|
D-----------------------------------------------------------------|
A-----------------------------------------------------------------|
E--1--------------------------------------------------------------| 1x

G-----------------------3----------1-3----------------------------|
D-----3--1h3h1h3-----------1h3h1h3--------------------------------|
A----------------3-2-1--------------------------------------------|
E--1--------------------------------------------------------------|

The last bar repeats until the end

Tabbed by Max Dietz

            
            
Suggest correction
Creating personal tab
Creating personal tab
You can edit any tab online and save it as your Personal.

You can edit, replace or remove any tab part or add personal notes – all changes will be seen only by you.

Personal tabs can be accessed anytime from any device, even offline.
Learn more »
comments
print report bad tab
guest
You may want to rate the tab now too:
select rating
Wanna post a correction for this tab? Suggest correction