Oops, an error
Loading. Please wait.

One Last Soul Tab

8,328 views 18 this week
no commentswrite comment
1 2 3 4 5
accurate
x 5
add to favorites
launch autoscroll
font size
0
reset
how to read this tab
guitar tuner
Autoscroll
slow
fast
+/-
esc
set tempo
stop
Help us to improve Ultimate-Guitar.com Take our survey!
×
Difficulty
Tuning
novice
D A D G B E
"ONE LAST SOUL"
BY BLACK COUNTRY COMMUNION

FROM THE ALBUM BLACK COUNTRY COMMUNION (2010)
MUSIC BY GLENN HUGES AND JOE BONAMASSA
LYRICS BY GLENN HUGES

TABBED BY MATT
(matthealy85@hotmail.com)

***I've done everything except for the solos and some of the interlude.
Even that I'm a little sketchy on. Anyone have the solos, please send 'em my way!***

TUNING:
(Drop D)

CHORDS:

F#5 - 444xxx
E5 - 222xxx
D5 - 00023x

INTRO (x4):
e-----------------------------------------------|
B-----------5-----------5-----------5-----------|
G-----------4-----------4-----------4-----------|
D--4--4--4-----4--4--4-----4--4--4-----4--7--6--|
A--4--4--4-----4--4--4-----4--4--4-----4--7--6--|
D--4--4--4-----4--4--4-----4--4--4-----4--7--6--|
   PM....|     ......|     ......|

VERSE: INTRO (x4)
You were born in a jet stream.
Down in South Caroline.
Got a role in a big scheme.
Now you're ready to shine.

CHORUS:
F#5    E5  D5
You're the one last soul who can win it.
F#5    E5  D5
You're the one last soul if you try.
D5     E5 F#5
You're the one last soul if you live it.
D5     E5  F#5
You're the one last soul tell you why.
F#5 E5 D5
And if you feel what you got you can give it.
F#5 E5 D5
       One last soul make me cry.
D5   E5 F#5
You're the one last soul who can win it.
D5   E5  F#5
You're the one last soul 'till you try.

(VERSE)
Now you burn like a freight train.
You're a bird on a wire.
See you drivin' me insane.
And I couldn't get higher.

(CHORUS)
You're the one last soul who can win it.
You're the one last soul if you try.
You're the one last soul if you live it.
You're the one last soul tell you why.
And if you feel what you got you can give it.
One last soul make me cry.
You're the one last soul who can win it.
You're the one last soul if you try.
And when you get what you want don't regret it.
One last soul make me cry.
You're the one last soul who can win it.
You're the one last soul.

INTERLUDE (x2):

e--------------12-------------|---------------14-------------|--------------16-------------|
B--------------15b(17)brbrbr--|---------------17b(19)brbrbr--|--------------19b(21)brbrbr--|
G-----------------------------|------------------------------|-----------------------------|
D--4--6--7--6-----------------|--6--7--9--11-----------------|--11--12--14-----------------|
A-----------------------------|------------------------------|-----------------------------|
D-----------------------------|------------------------------|-----------------------------|

(GUITAR SOLO)

(CHORUS)
And if you feel what you got you can give it.
One last soul make me cry.
You're the one last SOOOOUUULLLL!!!
(You're the one last soul who can win it. You're the one last soul if you try)
And when you get what you want don't regret it.
One last soul make me cry.
You're the one last soul who can win it.
You're the one last soul.

(OUTRO GUITAR SOLO)
Suggest correction
comments
print report bad tab
guest
You may want to rate the tab now too:
select rating
Wanna post a correction for this tab? Suggest correction