Oops, an error
Loading. Please wait.

Annihilate This Week Tab

version 1
version 1

Whole song

1,445 views 9 this week
no commentswrite comment
1 2 3 4 5
please rate
add to favorites
launch autoscroll
font size
0
reset
how to read this tab
guitar tuner
Autoscroll
slow
fast
+/-
esc
set tempo
stop
Help us to improve Ultimate-Guitar.com Take our survey!
×
Contributor
Difficulty
novice
Didn’t really Tab the song, just tabbed out the chord version although it doesn’t
sound quite right to me.

Artist; Black Flag 
Album: Loose Nut (1985)
Song: Annihilate This Week

intro
|-----------------------------------------------------------|
|-----------------------------------------------------------|
|-----------------------------------------------------------|
|-----------------------------------------------------------|
|---9--9--9--9--9—-9--9--9--9—-9--9--9----999-999-999-99----|
|---7--7--7--7--7--7--7—-7—-7—-7--7--7----777-777-777-77----|

Verse 1
|-----------------------------|-----------------------------|
|-----------------------------|-----------------------------|
|-----------------------------|-----------------------------|
|-----------------------------|------------------5--7-------| x4
|---2-2-2---6--5-5-5-5--------|--6-6-6---8--7-7--3--5-------|
|---0-0-0---4--3-3-3-3--------|--4-4-4---6--5-5-------------|

Chorus 
|-----------------------------|-----------------------------|
|-----------------------------|-----------------------------|
|-----------------------------|-----------------------------|
|-----------------------------|-----------------------------| x4
|---xx-xx-xx----2--2----------|--xx-xx-xx---7-7----5--------|
|---xx-xx-xx----0--0----x2----|--xx-xx-xx---5-5----3--------|

Repeat Verse 
Repeat Chorus

Bridge
|----------------------------------------------|
|----------------------------------------------|
|----------------------------------------------|
|----------------------------------------------|x4
|---7-7—7-7----5-5-5-5------99-999-999-999-----|
|---5-5—5-5----3-3-3-3------77-777-777-777-----|

|----------------------------------------------|
|----------------------------------------------|
|----------------------------------------------|
|-------------999999999999999999999------------|
|---999-999---777777777777777777777------------|
|---777-777------------------------------------|

|----------------------------------------------|
|----------------------------------------------|
|----------------------------------------------|
|-----------5---5-6---6-7---7-8---8-9---11-----|
|---8-9---9-3---3-4---4-5---5-6---6-7----9-x3--|
|---6-7---7------------------------------------|

Solo??

Repeat verse
Repeat chorus
Outro – 1st part of chorus x7

comments
We did not receive enough feedback on this tab! Please rate:
print report bad tab
1 2 3 4 5
I want to post or [tab]
guest
You may want to rate the tab now too:
select rating
Please do not post tabs as comments. Select "correction" instead!