Oops, an error
Loading. Please wait.

Bastard In Love Tab

version 2
version 2

Whole song

627 views 9 this week
no commentswrite comment
1 2 3 4 5
please rate
add to favorites
launch autoscroll
font size
0
reset
how to read this tab
guitar tuner
Tab Pro tools
  • play this tab
  • loop segment
  • change instrument
  • show fretboard
  • metronome
×
Best way to learn
"Bastard In Love"
Autoscroll
slow
fast
+/-
esc
set tempo
stop
Contributor
Bastard in Love
--------------------------------------------------------------------------------

intro
e-------------------------------------|
B-------------------------------------|
G--7-7-x-x-x-x-6----------------------|
D--7-7-x-x-x-x-6--5-5-4-4-4-----------|
A--5-5-x-x-x-x-4--5-5-4-4-4-----------|
E-----------------3-3-2-2-2-----------|


verse (x2)
e-------------------------------------|
B-------------------------------------|
G--7-7-x-x-x-x-6----------------------|  x3
D--7-7-x-x-x-x-6--5-5-4-4-4-----------|
A--5-5-x-x-x-x-4--5-5-4-4-4-----------|
E-----------------3-3-2-2-2-----------|

e---------------------------------------|
B---------------------------------------|
G---------------------------------------|
D--7-7-7-7-7-7-7-7-7-7-7-7-7-7-7-7------|
A--7-7-7-7-7-7-7-7-7-7-7-7-7-7-7-7------|
E--5-5-5-5-5-5-5-5-5-5-5-5-5-5-5-5------|


chorus
e------------------------------------2-2-3-2-2-------------------|
B------------------------------------2---------3-----------------|
G------------------------------------------------x-2-2-2-x-4-3-2-|
D--2-2-2-2-2-2-2-2--5-5-5-5-5-5-5--------------------------------|  x2
A--2-2-2-2-2-2-2-2--5-5-5-5-5-5-5--------------------------------|
E--0-0-0-0-0-0-0-0--3-3-3-3-3-3-3--------------------------------|


e----------------------------------2-2-3-2--2-2-3-2--2-2-3-2--2-2-3-2-|
B----------------------------------2-2-2-2--2-2-2-2--2-2-2-2--2-2-2-2-|
G----------------------------------2-2-2-2--2-2-2-2--2-2-2-2--2-2-2-2-|
D--2-2-2-2-2-2-2---5-5-5-5-5-5-5--------------------------------------|
A--2-2-2-2-2-2-2---5-5-5-5-5-5-5--------------------------------------|
E--0-0-0-0-0-0-0---3-3-3-3-3-3-3--------------------------------------|


verse
chorus
solo
chorus
verse
chorus

outro
e-----------------------------------|
B--7-7-8-7--------------------------|
G--7-7-7-7--------------------------|
D--7-7-7-7--------------------------|
A--5-5-5-5--------------------------|
E-----------------------------------|
comments
We did not receive enough feedback on this tab! Please rate:
print report bad tab
1 2 3 4 5
I want to post or [tab]
guest
You may want to rate the tab now too:
select rating
Please do not post tabs as comments. Select "correction" instead!