Oops, an error
Loading. Please wait.

Beat My Head Against The Wall Bass Tab

version 1
version 1

Whole song

Interactive

1,637 views 6 this week
no commentswrite comment
1 2 3 4 5
please rate
add to favorites
launch autoscroll
font size
0
reset
guitar tuner
Autoscroll
slow
fast
+/-
esc
set tempo
stop
Help us to improve Ultimate-Guitar.com Take our survey!
×
Difficulty
intermediate
Black Flag
"Beat My Head Against the Wall"
off the album My War

This is a great song, and I'm surprised there wasn't already a tab for it. It's a pretty 
straight-forward punk song, but still takes a bit of skill.

"There's no method..."
|-------------------------------------|
|-------------------------------------| (x2)
|--5555/3333/7777~-77-----------------|
|--------------------6666~-66/4444~-44|

Punk verse/Under the solo
|----------------------|
|----------------------|   (4x)
|----------------5-5---|
|---555533331111-------|

"Swimming, in the mainstream..." (Just follow the guitar)
|-----------------------------------------------------|
|-----------------------------------------------------|
|-----------5---8-7-5--3~---------------7--10-9-7-5~--|
|--3~--3-6-------------------5~---5-8-----------------|


Under the solo, just play the punk part.


After the solo, there's this groovy thing, once again, follow the gee-tar.
|-------------------------------------------------------------|
|-------------------------------------------------------------|
|-5-7-9-------------------------5-7-9-------------------------| (x4)
|--------10~-8-5-5-8-10--8-6-3---------10-8-5--5-8-10-10-8--5-|

This is a really fun song to play, once you get the hang of it.
Suggest correction new What's this?
You can suggest a correction to this tab. Community and Mods will review your correction and vote to approve or reject it.
comments
We did not receive enough feedback on this tab! Please rate:
print report bad tab
1 2 3 4 5
guest
You may want to rate the tab now too:
select rating
Please do not post tabs as comments. Select "correction" instead!