Oops, an error
Loading. Please wait.

Cant Decide Bass Tab

2,519 views 3 this week
1 commentread comment
1 2 3 4 5
x 3
add to favorites
launch autoscroll
font size
0
reset
guitar tuner
Autoscroll
slow
fast
+/-
esc
set tempo
stop
Help us to improve Ultimate-Guitar.com Take our survey!
×
Author
Difficulty
novice
Black Flag - Can't Decide off My War album from 1984


intro/verse
G|-----------------------------------------|
D|-----------------------------------------|
A|-----------5555-3333-4444-2222-----------|
E|-3333-6666---------------------6666-5555-|

p-chorus
G|----------------------------------------------------------|
D|----------------------------------------------------------|
A|----------------------------------------------------------|
E|-33--x--33--x--55-x-55-x-88-x-88-xx-7777777777777777------|

chorus 1   play 3X's
G|----------------------------------------------|
D|----------------------------------------------|
A|----------------------------66666666----------|
E|-00-3-333-00-3-333-00-3-333-------------------|

chorus 2
G|--------------------------------------|
D|--------------------------------------|
A|----66666666----66666666----66666666--|
E|-00----------00----------00-----------|

chorus 3
G|----------------|
D|----------------|
A|-----5-------5--|
E|-777--5--777--5-|
Suggest correction
Give kudos to tab author, rate the tab!
1 2 3 4 5
comments
print report bad tab
1 comment total.
0 reply
EmekMEtal 23 Nov 25, 2013 01:50 PM

Chorus 3 is just 1 time instead of 2

guest
You may want to rate the tab now too:
select rating
Wanna post a correction for this tab? Suggest correction