Oops, an error
Loading. Please wait.

Depression Bass Tab

version 1
version 1

Whole song

Interactive

1,993 views 3 this week
1 commentread comment
1 2 3 4 5
please rate
add to favorites
launch autoscroll
font size
0
reset
guitar tuner
Autoscroll
slow
fast
+/-
esc
set tempo
stop
Help us to improve Ultimate-Guitar.com Take our survey!
×
Author
Difficulty
novice
BLACK FLAG - DEPRESSION
BASSIST: Chuck Dukowski

Verse
G: -----------------------------------------|
D: -----------------------------------------|
A: -0-0-3h5-3h5-----------------------------|
E: -------------5-3-1-1-1-1-3-3-3-3---------|(x4)

Chorus
G: -------------------------------------|
D: -------------------------------------|
A: --------------------3-3-3-3-5-5-5-5--|
E:  --3-3-3-3-5-5-5-5-------------------|(x2)

Bridge/Pre-Verse
G: --------------------|
D: --------------------|
A: -------------333333-|
E: -5-5-5-1-1-1--------|(x2)
Suggest correction
Give kudos to tab author, rate the tab!
1 2 3 4 5
comments
print report bad tab
1 comment total.
0 reply
mdc_ivan 3,383 wrote on September 7 2015, 08:28 am

Clearly wrong. I think this tab is wrong 'cause for these reasons:
-the verse don't sound like that;
-there aren't all the notes;
-there is no respect of the time.

guest
You may want to rate the tab now too:
select rating
Wanna post a correction for this tab? Suggest correction