Oops, an error
Loading. Please wait.

Depression Tab

version 3
version 3

Whole song

Interactive

1,955 views 3 this week
no commentswrite comment
1 2 3 4 5
please rate
add to favorites
launch autoscroll
font size
0
reset
how to read this tab
guitar tuner
Autoscroll
slow
fast
+/-
esc
set tempo
stop
Help us to improve Ultimate-Guitar.com Take our survey!
×
Author
Difficulty
novice
This is the "Damaged" version with Rollins at the vocals

Intro
E------|
B------|
G------|
D--3---|
A--3---|
E--1---|

Verse
E-------------------------------------------------|
B-------------------------------------------------|
G--------6--6-8--6--6-----6--6--6-6-6-8--8--8--8--|
D--8--8--6--6-8--6--6--8--6--6--6-6-6-8--8--8--8--|
A--8--8--4--4-6--4--4--8--4--4--4-4-4-6--6--6--6--|
E--6--6----------------6--------------------------|

Chorus
E----------------------------------------------|
B----------------------------------------------|
G--------------------------6--6--6-6-6-6-8--8--|
D--6--6--6-6-6-8--8--8--8--6--6--6-6-6-6-8--8--|
A--6--6--6-6-6-8--8--8--8--4--4--4-4-4-4-6--6--|
E--4--4--4-4-4-6--6--6--6----------------------|

Post-Chorus
E--------------------------------------------------|
B--------------------------------------------------|
G--------------------------------------------------|
D--8--8--8-8-8-4--4--4--4--3--9-9-9-9-9-9-9-9-9-9--|
A--8--8--8-8-8-4--4--4--4--3--9-9-9-9-9-9-9-9-9-9--|
E--6--6--6-6-6-2--2--2--2--1--7-7-7-7-7-7-7-7-7-7--|

Solo (Something like this)
E----6----6---6--6-6-6-6-6-6---9--9-9-9---8--8-8-9-10-11-/-|
B----6----6---6--6-6-6-6-6-6---9--9-9-9---8--8-8-9-10-11-/-|
G--8b---8b--8b---------------11b--------10b----------------|
D----------------------------------------------------------|
A----------------------------------------------------------|
E----------------------------------------------------------|

E--12-13-14-/-/-/-/-/-/--19b---21b--|
B--12-13-14-/-/slides-/-------------|
G-----------------------------------|
D-----------------------------------|
A-----------------------------------|
E-----------------------------------|

Intro       x2
Verse       x4
Chorus      x2
Post-Chorus x2
Verse       x4
Chorus      x2
Post-Chorus x2 With some random fills
Verse       x4
Chorus      x2
Post-Chorus x1 Last chord is 1 octave higher
Post-Chorus x1 With a random fill
Solo
Chorus/End  x2
Suggest correction
What's this?
You can suggest a correction to this tab. Community and Mods will review your correction and vote to approve or reject it.
comments
We did not receive enough feedback on this tab! Please rate:
print report bad tab
1 2 3 4 5
guest
You may want to rate the tab now too:
select rating
Please do not post tabs as comments. Select "correction" instead!