Oops, an error
Loading. Please wait.

I Love You Tab

version 2
version 2

Whole song

3,878 views 12 this week
2 commentsread comments
1 2 3 4 5
excellent!
x 7
add to favorites
launch autoscroll
font size
0
reset
how to read this tab
guitar tuner
Autoscroll
slow
fast
+/-
esc
set tempo
stop
Help us to improve Ultimate-Guitar.com Take our survey!
×
Author
Black Flag - I Love You

 Tabbed by Thomas P.,

Hi, this is the first tab I've ever post on the internet, if you have any corrections or 
email me at march_of_pig[@]hotmail.com .

I'm looking for some "noise rock" guitar stuff, so if you are well informed about it or 
interesting links in your bookmarks , let me know.

        Q=100

   Intro
e-----------------------------------|
B-15b~-12-(12)----------------------|
G--------------13-11-10-------------|
D-----------------------11-10-------|
A-----------------------------11v---|
E-----------------------------------|

---1----3-------4--1-----------4----


Verse

e-------------------------------------------------|
B-------------------------------------------------|
G--------------------------6-6-----6---6-----6-6--|
D--6-6-----6---6-----6-6---6-6-x-x-6-r-6-x-x-6-6--|
A--6-6-x-x-6-r-6-x-x-6-6---4-4-x-x-4---4-x-x-4-4--|
E--4-4-x-x-4---4-x-x-4-4--------------------------|

---1---2-------3-----4-----------------------------


e-------------------------------------------------|
B-------------------------------------------------|
G-------------------------------------------------|
D--6-6-----6---6-----6-6---9---9---7---6-----6----|
A--6-6-x-x-6-r-6-x-x-6-6---9-r-9-r-7-r-6-x-x-6----|
E--4-4-x-x-4---4-x-x-4-4---7---7---5---4-x-x-4----|


e------------------4--------4--------|
B------------------6--------6--------|
G------------------6--------6--------|
D--7-----7-----6-6-6----6-6-6--------|
A--7-----7-----4-4-4----4-4-4--------|
E--5-----5---------------------------|

---1-----3-----1--------3-------------

Chorus

e-----------------------------------------------------------------|
B-----------------------------------------------------------------|
G--8---8-------9--9----9-9-9-9--9-9-9-9--6-4-4-4--4-4-4-4--4-4-x--|
D--8-r-8-r-6-r-9--9-9--9-9-9-9--9-9-9-9--6-4-4-4--4-4-4-4--4-4-x--|
A--6---6---6---7--7-9--7-7-7-7--7-7-7-7--4-2-2-2--2-2-2-2--2-2-x--|
E----------4--------7---------------------------------------------|

---1-------2--------3--4--------1--------2--------3--------4------


|---------------0----|x2
|---------------0----|
|--------------------|
|-4----------2-------|
|-4--2-------2-------|
|-2----4--2--0-------|


e---------------------------------------------------0-|
B---------------------------------------------------0-|
G-----------------------------------------------------|
D---4--------------4----------------4------------2----|
A---4--2-----------4--2-------------4--2---------2----|
E---2-----4---2----2------4---2-----2-----4--2---0----|


Solo

e-----------------------------------------------------------------------|
B---15b----13-(13)------------------------------------------14----------|
G--------------------13-11-10--(10)-------------------------------------|
D-----------------------------------12-10----(10)-----------11----------|
A-------------------------------------------------10~--11~--------------|
E-----------------------------------------------------------------------|

e-------------------------------------12-13b----11-11-9-11--(9-11)----|
B--8b-7--7-8-10b-----11-13-15-16b-------------------------------------|
G---------------------------------------------------------------------|
D---------------------------------------------------------------------|
A---------------------------------------------------------------------|
E---------------------------------------------------------------------|

I'm not 100% sure for the last part, the sound is too muddy...

e--(14)-14-12-11--11-12-14-12-11-------------------------------------------------|
B---------------------------------14-12-11-12-14---------------------------------|
G------------------------------------------------14-12-11-9-11-12--13b--11-8-8/--|
D--------------------------------------------------------------------------------|
A--------------------------------------------------------------------------------|
E--------------------------------------------------------------------------------|


"I Love You"

I put my fist through the door
I hate myself for you
I love you
Suspicion rules my very soul
My knife is sharp,
My thoughts are cold

I love you
I love you because,
I love you

I can't talk,
I can't think
My feelings burn inside of me
I love you
I practice my knife,
I feel the power
I look in the mirror,
and I want to destroy her
I love you
I gave you my life,
but what did I get?
Now its time to take it back

I love you
I love you because,
I love you

I hear a car,
Your footsteps outside
Knife in hand,
love in heart
Sweating - I wait
I love you
You screamed,
you bled,
You laid on the floor
But now I know you'll leave me no more

I love you
I love you Because,
I love you
Suggest correction
comments
print report bad tab
2 comments total.
+1 reply
METAL JEFF 62 wrote on August 31 2015, 01:51 pm

Can you ad the bass line ,backing the solo? I think I have it but another opinion would help. Thanks,great tab.

0 reply
mdc_ivan 3,383 wrote on May 14 2016, 01:45 pm

Can you post it? I'm learning completaly My War on bass.

guest
You may want to rate the tab now too:
select rating
Please do not post tabs as comments. Select "correction" instead!