Oops, an error
Loading. Please wait.

In My Head Tab

version 2
version 2

Whole song

Interactive

1,842 views 18 this week
1 commentread comment
1 2 3 4 5
excellent!
x 5
add to favorites
launch autoscroll
font size
0
reset
how to read this tab
guitar tuner
Tab Pro tools
  • play this tab
  • loop segment
  • change instrument
  • show fretboard
  • metronome
Autoscroll
slow
fast
+/-
esc
set tempo
stop
Contributor
"In My Head" by Black Flag
from In My Head
tabbed by Mr. Cancelled (dopasaurusrex@gmail.com)


Standard tuning (e,B,G,D,A,E)

Intro
e------------------------------------|
b------------------------------------|
g------------------------------------|
d-----7-----8------10-----8----------|
a---7-----8-----10------8------------|
e-5-----6-----8-------6--------------|

e------------------------------------|
b------------------------------------|
g------------------------------------|
d-----7-----8-8-7-7-8-7-7------------|
a---7-----8---8-7-7-8-7-7------------|
e-5-----6-----6-5-5-6-5-5------------|

Verse
e------------------------------------|
b------------------------------------|
g--------7--------10-9-7-------------|
d-7-8-10---10-8-7--------10-8--------|
a------------------------------------|
e------------------------------------|

e------------------------------------|
b------------------------------------|
g--------7---------------------------|
d-7-8-10---10-8-8-7-7-8-7-7----------|
a---------------8-7-7-8-7-7----------|
e---------------6-5-5-6-5-5----------|

Chorus
e----------------------------------------|
b----------------------------------------|
g----------------------------------------|
d-5--5-5--5-5--5-5--5-5--5-5--5-5--5-5--5|
a-5--5-5--5-5--5-5--5-5--5-5--5-5--5-5--5|
e-3--3-3--3-3--3-3--3-3--3-3--3-3--3-3--3|

e-------------------------------------------------|
b-------------------------------------------------|
g-------------------------------------------------|
d-8-7-7-8-7-7-8-7-7-8-7-7-8-7-7-8-7-7-8-7-7-8-7-7-|
a-8-7-7-8-7-7-8-7-7-8-7-7-8-7-7-8-7-7-8-7-7-8-7-7-|
e-6-5-5-6-5-5-6-5-5-6-5-5-6-5-5-6-5-5-6-5-5-6-5-5-|

Break
e----------------------------------------|
b----------------------------------------|
g----------------------------------------|
d-5--5-5--5-5--5-5--5------3--3----------|
a-5--5-5--5-5--5-5--5------3--3----------|
e-3--3-3--3-3--3-3--3-0--0-1--1----------|
                      .  .

e------------------------------------|
b------------------------------------|
g------------------------------------|
d-------2--------2--------2----------|
a-----2-2------2-2------2-2----------|
e-0-1---0--0-1---0--0-1---0----------|
  . . .    . . .    . . .

e---------------------------------------|
b---------------------------------------|
g---------------------------------------|
d-1010101010108-8-8-8-8-8-7-7-7-7-7-7-7-|
a-1010101010108-8-8-8-8-8-7-7-7-7-7-7-7-|
e-8-8-8-8-8-8-6-6-6-6-6-6-5-5-5-5-5-5-5-|


The song structure is pretty simple. Start with the intro, then play: verse, chorus, 
chorus, break. Play this pattern twice, play the solo (not tabbed), then play the regular 
again.
comments
print report bad tab
1 comment total.
0 reply
RideTheJack wrote on January 11 2010, 06:26 pm

Perfect! Thanks!

just needs the solo.

I want to post or [tab]
guest
You may want to rate the tab now too:
select rating
Please do not post tabs as comments. Select "correction" instead!