Oops, an error
Loading. Please wait.

Ive Had It bass

version 2
version 2

Whole song

55 views 1 this week
no commentswrite comment
1 2 3 4 5
1 last vote to show rating
add to favorites
×
Save as Personal and add changes to this tab that will be seen only by you. Learn more ›
×
You can save this tab as Personal to edit and correct it or add notes. All changes will be seen only by you. Learn more »
launch autoscroll
font size
0
reset
guitar tuner
edit
Autoscroll
slow
fast
+/-
esc
set tempo
stop
Author
Difficulty
Song: I've Had It
Artist: Black Flag
Album: Nervous Breakdown 
Genre: Hardcore Punk
Year: 1978

Hey guys! This is the bass tab of the song and it's 100% correct. 
Anyway, enjoy the Black Flag!

Verse:

G:----------------
D:----------------
A:---77777-5------
E:------------5---

Chorus:

G:-----------------------------------------
D:-----------------------------------------
A:-----------------------------------------
E:---33333333-55555555-66666666-77777777---

Outro:

G:---------------------------------------------------------------------------------
D:---------------------------------------------------------------------------------
A:-----------------------------------66-77-88-99-10-10-11-11-12-12-13-13-14-14-----
E:---3333-5555-6666-7777-88-99-10-10-------------------------------------------5---

The order is:
.Verse x4
.Chorus x1
.Verse x4
.Chorus x1
.Verse x4
.Chorus x1
.Verse x4
.Outro x1




Tab by: mdc_ivan


            
            
Suggest correction
Creating personal tab
Creating personal tab
You can edit any tab online and save it as your Personal.

You can edit, replace or remove any tab part or add personal notes – all changes will be seen only by you.

Personal tabs can be accessed anytime from any device, even offline.
Learn more »
Give kudos to tab author, rate the tab!
1 2 3 4 5
comments
print report bad tab
guest
You may want to rate the tab now too:
select rating
Wanna post a correction for this tab? Suggest correction