Oops, an error
Loading. Please wait.

Jealous Again Bass Tab

version 1
version 1

Album

Whole song

Interactive

883 views 1 this week
3 commentsread comments
1 2 3 4 5
please rate
add to favorites
launch autoscroll
font size
0
reset
guitar tuner
Autoscroll
slow
fast
+/-
esc
set tempo
stop
Help us to improve Ultimate-Guitar.com Take our survey!
×
Author
-------------------------------------------------------------------------------
                         JEALOUS AGAIN EP - Black Flag
-------------------------------------------------------------------------------
Tabbed by: sillypenta
E-mail: sillypenta@gmail.com

Tuning: Standard

Some of these songs already have bass tabs on Ultimate Guitar, but I think my
versions are more accurate.

===============================================================================


JEALOUS AGAIN

Intro
G|--------------------------976-----|
D|-----------------------------976--|
A|--------------------------------9-|
E|----------------------------------|

Verse 1
G|----------------------------------|
D|----------------------------------|
A|-7-7----5-55-555-7-7----5-55-555--|
E|-----7-7-------------7-7----------|

G|----------------------------------|
D|----------------------------------|
A|-7-7----5-55----3/777777777445566-|
E|-----7-7-----5-5------------------|

Verse 2
G|----------------------------------|
D|----------------------------------|
A|-7-7----5-55-555-7-7----5-55-555--|
E|-----7-7-------------7-7----------|

G|----------------------------------|
D|----------------------------------|
A|-7-7----5-55----3/777777777777777-|
E|-----7-7-----5-5------------------|

Chorus
G|-------------------------------|
D|-------------------------------|
A|----------------9-7-5-7--------| x2
E|-77777777-777777-------5-5-555-|

G|----------------------------------|
D|----------------------------------|
A|----------------------------------|
E|-3-333333/15--15-15-15-15-15-15\5-|

Repeat Verse 1
Repeat Verse 2
Repeat Chorus
Repeat Verse 1
Repeat Verse 2
Repeat Chorus

Last Verse
G|----------------------------------|
D|----------------------------------|
A|-7-7----5-55-555-7-7----5-55-555--|
E|-----7-7-------------7-7----------|

G|----------------------------------|
D|----------------------------------|
A|-7-7----5-55----3-33----2-22------|
E|-----7-7-----5-5-----3-3-----111-0|


===============================================================================


REVENGE

Intro
G|----------------------------------|
D|----------------------------------|
A|----------------------------------|
E|----------------------------------|

Verse
G|----------------------------------|
D|-----222-----------------6643-----|
A|--------2-22-----------------643--|
E|-4-4---------2-24-4444444-------6-|

Chorus
G|-----------------------------------------------------|
D|--2--------------------------------------------------|
A|-------------------4---------------------------------|
E|-0--0002-22222-5-5--552-22-222-0-0-00024444444444444-|

Pre-verse
G|----------------------------------|
D|----------------------------------|
A|-2--22222222222222--2222222222222-|
E|----------------------------------|

Repeat Verse
Repeat Chorus
Repeat Pre-verse
Repeat Verse
Repeat Chorus


===============================================================================


WHITE MINORITY

Intro
G|----------------------------------|
D|----------------------------------|
A|----------------------------------|
E|----------------------------------|

G|----------------------------------|
D|----------------------------------|
A|-9---------------9----------------|
E|----------------------------------|

G|----------------------------------|
D|----------------------------------|
A|----------------------------------|
E|-7--7777777775-6-7--7777777775-6--|

Verse
G|----------------------------------|
D|-----6---------------6------------|
A|---69-96-7--7--7---69-96-7--7--7--| x2
E|-77-----7--7--7--77-----7--7--7---|

Chorus
G|----------------------------------|
D|----------------------------------|
A|-9999-97-77777777---7-4-----------|
E|-----------------555---7577777777-|

G|----------------------------------|
D|----------------------------------|
A|-9999-97-777-777----7-4-----------|
E|-----------------555---5-777-777--|

Repeat Verse
Repeat Chorus
Repeat Verse


===============================================================================


NO VALUES

Verse
G|----------------------------------|
D|----------------------------------|
A|-----------------3--5-------------|
E|-5-55-5553-33-333------5--5555555-|

G|----------------------------------|
D|----------------------------------|
A|-----------------5--3-------------|
E|-5-55-5553-33-333------5--5555555-|

G|----------------------------------|
D|----------------------------------|
A|-----------------3--5-------------|
E|-5-55-5553-33-333------5--5555555-|

G|----------------------------------|
D|----------------------------------|
A|-----------------5--3-------------|
E|-5-55-5553-33-333------5--5555555-|

Chorus
G|----------------------------------|
D|----------------------------------|
A|-7777--7---------7777--7----------|
E|------5-55555-55------5-55555-55--|

G|----------------------------------|
D|----------------------------------|
A|-5555--5---------5555--5----------|
E|------3-33333-33------3-33333-33--|

Repeat Verse
Repeat Chorus
Repeat Verse
Repeat Chorus
Repeat Verse

Ending
G|------------------|
D|------------------|
A|-5--3-------------| x3
E|-------5----------|


===============================================================================


YOU BET WE'VE GOT SOMETHING PERSONAL AGAINST YOU!

Intro
G|----------------------------------|
D|----------------------------------|
A|-5---------------5----------------|
E|---5-555555555555--5-555555555555-|

Verse
G|----------------------------------|
D|----------------------------------|
A|-5---------------5----------------| x2
E|---5-555555555555--5-555555555555-|

Chorus
G|----------------------------------|
D|----------------------------------|
A|-4444-4444444-4442222-2222222-222-|
E|----------------------------------|

G|----------------------------------|
D|----------------------------------|
A|-4444-4444444-444-----------------|
E|------------------555555555555555-|

Repeat Verse
Repeat Chorus
Repeat Verse


===============================================================================
Suggest correction new What's this?
You can suggest a correction to this tab. Community and Mods will review your correction and vote to approve or reject it.
comments
We did not receive enough feedback on this tab! Please rate:
print report bad tab
1 2 3 4 5
3 comments total.
-1 reply
misfitsdisciple 862 wrote on October 22 2014, 09:23 pm

Lack of accuracy. Jealous Again tab already has a better version on the black flag section (not full albums), making this version inferior.

-1 reply
misfitsdisciple 862 wrote on October 22 2014, 09:25 pm

No offense, but most of these tabs are less accurate than the already written tabs in the band section.

0 reply
mdc_ivan 2,894 wrote on September 6 2015, 01:27 pm

Perfect tabs!

guest
You may want to rate the tab now too:
select rating
Please do not post tabs as comments. Select "correction" instead!