Oops, an error
Loading. Please wait.

Loose Nut Tab

version 1
version 1

Album

Whole song

1,790 views 3 this week
no commentswrite comment
1 2 3 4 5
accurate
x 3
add to favorites
launch autoscroll
font size
0
reset
how to read this tab
guitar tuner
Autoscroll
slow
fast
+/-
esc
set tempo
stop
Help us to improve Ultimate-Guitar.com Take our survey!
×
Author
Difficulty
intermediate
                      Black Flag - Loose Nut


------------------------------------------------------------------------------
Loose Nut
------------------------------------------------------------------------------

intro
e--------------------------------|
B--------------------------------|
G-------x--6-6-6--5-5-5----------| x4
D---3-3-x--6-6-6--5-5-5----------|
A---3-3-x--4-4-4--3-3-3----------|
E---1-1-x------------------------|

verse                  (he improvises here rather than then playing the G#)
e----------------------------------------------------------------|
B----------------------------------------------------------------|
G--------5-5--4-4--5-5-------------------------------------------| x4
D--3-3---5-5--4-4--5-5---6-6-6-6-6-6-6-6-6-6-6-6-6-6-6-6---------|
A--3-3---3-3--2-2--3-3---6-6-6-6-6-6-6-6-6-6-6-6-6-6-6-6---------|
E--1-1-------------------4-4-4-4-4-4-4-4-4-4-4-4-4-4-4-4---------|

e--------|
B--------|
G--------|
D--8-6---|
A--8-6---|
E--6-4---|


chorus
e--------------------------------------------------------|
B--------------------------------------------------------|
G--------------------------------------------------------| x4
D----3-----3--6-6-6--5-5-5-5-----5-----5--8-8-8--7-7-7---|
A--x-3-x-x-3--6-6-6--5-5-5-5---x-5-x-x-5--8-8-8--7-7-7---|
E--x-1-x-x-1--4-4-4--3-3-3-3---x-3-x-x-3--6-6-6--5-5-5---|


intro
verse
chorus
intro
chorus
intro
solo
verse
chorus
intro


outro
e-------------------------------------|
B-------------------------------------|
G-------------------------------------|
D--6-5-6-5-6-5-6-5-6-5----------------|
A--6-5-6-5-6-5-6-5-6-5----------------|
E--4-3-4-3-4-3-4-3-4-3----------------|


------------------------------------------------------------------------------
Bastard in Love
------------------------------------------------------------------------------

intro
e-------------------------------------|
B-------------------------------------|
G--7-7-x-x-x-x-6----------------------|
D--7-7-x-x-x-x-6--5-5-4-4-4-----------|
A--5-5-x-x-x-x-4--5-5-4-4-4-----------|
E-----------------3-3-2-2-2-----------|


verse (x2)
e-------------------------------------|
B-------------------------------------|
G--7-7-x-x-x-x-6----------------------|  x3
D--7-7-x-x-x-x-6--5-5-4-4-4-----------|
A--5-5-x-x-x-x-4--5-5-4-4-4-----------|
E-----------------3-3-2-2-2-----------|

e---------------------------------------|
B---------------------------------------|
G---------------------------------------|
D--7-7-7-7-7-7-7-7-7-7-7-7-7-7-7-7------|
A--7-7-7-7-7-7-7-7-7-7-7-7-7-7-7-7------|
E--5-5-5-5-5-5-5-5-5-5-5-5-5-5-5-5------|


chorus
e------------------------------------2-2-3-2-2-------------------|
B------------------------------------2---------3-----------------|
G------------------------------------------------x-2-2-2-x-4-3-2-|
D--2-2-2-2-2-2-2-2--5-5-5-5-5-5-5--------------------------------|  x2
A--2-2-2-2-2-2-2-2--5-5-5-5-5-5-5--------------------------------|
E--0-0-0-0-0-0-0-0--3-3-3-3-3-3-3--------------------------------|


e----------------------------------2-2-3-2--2-2-3-2--2-2-3-2--2-2-3-2-|
B----------------------------------2-2-2-2--2-2-2-2--2-2-2-2--2-2-2-2-|
G----------------------------------2-2-2-2--2-2-2-2--2-2-2-2--2-2-2-2-|
D--2-2-2-2-2-2-2---5-5-5-5-5-5-5--------------------------------------|
A--2-2-2-2-2-2-2---5-5-5-5-5-5-5--------------------------------------|
E--0-0-0-0-0-0-0---3-3-3-3-3-3-3--------------------------------------|


verse
chorus
solo
chorus
verse
chorus

outro
e-----------------------------------|
B--7-7-8-7--------------------------|
G--7-7-7-7--------------------------|
D--7-7-7-7--------------------------|
A--5-5-5-5--------------------------|
E-----------------------------------|

------------------------------------------------------------------------------
Annihilate This Week
------------------------------------------------------------------------------

intro
e--1-1-1-1-1-1-1-1-1-1-1-1-1-1-1-1--|
B--x-x-x-x-x-x-x-x-x-x-x-x-x-x-x-x--|
G--x-x-x-x-x-x-x-x-x-x-x-x-x-x-x-x--|
D--3-3-3-3-3-3-3-3-3-3-3-3-3-3-3-3--|
A--3-3-3-3-3-3-3-3-3-3-3-3-3-3-3-3--|
E--1-1-1-1-1-1-1-1-1-1-1-1-1-1-1-1--|

verse
e-----------------------------------------------------|
B-----------------------------------------------------|
G-----------------------------------------------------|
D--3-3-3---6-5---5-5-5---6-6-6---9-8---8---11-11-13\--| x4
A--3-3-3---6-5---5-5-5---6-6-6---9-8---8---11-11-13\--|
E--1x1x1x--4-3--x3x3x3x--4x4x4x--7-6--x6x--9--9--11\--|


chorus
e------------------------------------------------------------|
B------------------------------------------------------------|
G------------------------------------------------------------| x4
D--3-x3-x3--3~3~3~3~--3-x3-x3--3~3~3~3--3-x3-x3----8-8--6-6--|
A--3-x3-x3--3~3~3~3~--3-x3-x3--3~3~3~3--3-x3-x3----8-8--6-6--|
E--1-x1-x1--1~1~1~1~--1-x1-x1--1~1~1~1--1-x1-x1----6-6--4-4--|
  m_______m          m_______m         m_______m


verse
chorus


then

e----------------------------------------------------|
B----------------------------------------------------|
G----------------------------------------------------| x4
D--7-7-7-7--5-5-5-5--8-8-8--8-8-8--8-8-8--8-8-8------|
A--7-7-7-7--5-5-5-5--8-8-8--8-8-8--8-8-8--8-8-8------|
E--5-5-5-5--3-3-3-3--6-6-6--6-6-6--6-6-6--6-6-6------|


e---------------------------------|
B---------------------------------|
G---------------------------------|
D--8-8-8--8-8-8--8-8-8--8-8-8-----|
A--8-8-8--8-8-8--8-8-8--8-8-8-----|
E--6-6-6--6-6-6--6-6-6--6-6-6-----|


e------------------------------------------------------------------|
B------------------------------------------------------------------|
G------------------------------------------------------------------|
D------------------------------------------------------------------|
A------------------------------------------------------------------|
E--1/13-13-13-13-13-13-13-13-13-13-13-13---------------------------|


e------------------------------------------------------------------|
B------------------------------------------------------------------|
G------------------------------------------------------------------|
D--3---3-5---5-6---6-8---8-10---10-12---12--15--15--15--15---------|
A--3---3-5---5-6---6-8---8-10---10-12---12--15--15--15--15---------|
E--1---1/3---3/4---4/6---6/8----8//10---10//13--13--13--13---------|


e---------------------------------------------------------------------|
B---------------------------------------------------------------------|
G------3-1-3b(5)-x-----3-1-3b(5)-x-----3p1-3b(5)-r0-1-1~2~3~5~6~9~6~5-|
D--3-x-3-1-3b(5)-x-3-x-3-1-3b(5)-x-3-x-3p1----------------------------|
A--3-x-------------3-x-------------3-x--------------------------------|
E--1-x-------------1-x-------------1-x--------------------------------|


solo
verse
chorus

------------------------------------------------------------------------------
Best One Yet
------------------------------------------------------------------------------

intro
e------------------|
B-----5-5-5h7------|
G--7--7-7-7---7----| x2
D--7--7-7-7---7----|
A--5--5-5-5---5----|
E------------------|

verse
e------------------------------------------------------------------|
B-------------------(10b12r10p8-10b11)-----------------------------|
G------------------------------------------------------------------|
D------------------------------------------------------------------|
A--2-2-2-2--5-5-5-5--10-10-9-9-9--10-10-9-9-9----------------------|
E--0-0-0-0--3-3-3-3--8--8--7-7-7--8--8--7-7-7----------------------|


Chorus
e----------------------|
B----------------------|
G----------------------| x4
D--2-2--5-5-7-7-8-8----|
A--2-2--5-5-7-7-8-8----|
E--0-0--3-3-5-5-6-6----|

e----------------|
B--5-5-5h7-------|
G--7-7-----7~----| x4
D----------------|
A----------------|
E----------------|


verse
chorus
verse
chorus
verse


Outro
e-------------------------------|
B-------------------------------|
G-------------------------------| x4
D--2-2--5-5-7-7-9-9-10-10-10----|
A--2-2--5-5-7-7-9-9-10-10-10----|
E--0-0--3-3-5-5-7-7-8--8--8-----|

e-----
B-----
G-7---
D-7---
A-5---
E-----


------------------------------------------------------------------------------
Modern Man
------------------------------------------------------------------------------
intro
e----------------------------------------------------|
B----------------------------------------------------|
G--------------------------9--10-9--10-9--10-9-------|x4
D--2---4-5-4--7---9-10-9---9--10-9--10-9--10-9-------|
A--2---4-5-4--7---9-10-9---7--8--7--8--7--8--7-------|
E--0---2-3-2--5---7-8--7-----------------------------|


Chorus
e----------------------------------------------------|
B----------------------------------------------------|
G----------------------------------------------------| x4
D--7-7-4-4--7-7-4-4--9-11-7-7--9-11-7-7--------------|
A--7-7-4-4--7-7-4-4--9-11-7-7--9-11-7-7--------------|
E--5-5-2-2--5-5-2-2--7-9--5-5--7-9--5-5--------------|


chorus
chorus


Outro
e----------------------------------------------------|
B----------------------------------------------------|
G--------------------------9--10-9--10-9--10-9-------|x2
D--2---4-5-4--7---9-10-9---9--10-9--10-9--10-9-------|
A--2---4-5-4--7---9-10-9---7--8--7--8--7--8--7-------|
E--0---2-3-2--5---7-8--7-----------------------------|

------------------------------------------------------------------------------
This is Good
------------------------------------------------------------------------------

Verse
e------4-----4-----4-----4-------2-----2-----2-----2--|
B------3-----3-----3-----3-------2-----2-----2-----2--|
G-----------------------------------------------------| x4
D--3-3---3-3---3-3---3-3-----1-1---1-1---1-1---1-1----|
A--5-5---5-5---5-5---5-5-----3-3---3-3---3-3---3-3----|
E--3-3---3-3---3-3---3-3-----1-1---1-1---1-1---1-1----|

Chorus
e-----------------------------------------------------------|
B--2-1--------------2-1-------------2-1---------------------|
G------1-0--------------1-0-------------1-0-----------------|
D----------1-0--------------1-0-------------1-0-------8-7-6-|
A--------------1-0--------------1-0-------------1-0---8-7-6-|
E-----------------------------------------------------6-5-4-|


------------------------------------------------------------------------------
I'm the One
------------------------------------------------------------------------------

intro
e---------------------------|
B---------------2-----1-----|
G-----------------3---------| x4
D--4-4-4-4-4-4------3-------|
A--4-4-4-4-4-4--------------|
E--2-2-2-2-2-2--------------|


verse
e---------------------------|
B---------------2-----1-----|
G-----------------3---------| x4
D--4-4-4-4-4-4------3-------|
A--4-4-4-4-4-4--------------|
E--2-2-2-2-2-2--------------|


Bridge
e---------------------------|
B---------------------------|
G---------------------------| x8
D--7-7-7-9-8-8-8--15-15-----|
A--7-7-7-9-8-8-8--15-15-----|
E--5-5-5-7\6-6-6--13-13-----|


Chorus
e---------------------------|
B---------------------------|
G---------------------------| x4
D--5-x-4-x-12-xx-11-11------|
A--5-x-4-x-12-xx-11-11------|
E--3-x-2-x-10-xx-9--9-------|


verse
bridge
chorus
verse
bridge/solo
chorus
verse
bridge/solo #2
chorus


Outro
e----------|
B----------|
G----------|
D--8--5~---|
A--8--5~---|
E--6--3~---|


------------------------------------------------------------------------------
Sinking
------------------------------------------------------------------------------

Verse
e-------------------------------------------------|
B-------------------------------------------------|
G----------7---7-----2-1--------------------------| x4
D--7---7---7---7---1-----2-5-4---3-2-----3--5-----|
A--7---7---5---5---------------5-----3---3--5-----|
E--5---5---------------------------------1--3-----|


The rest of the song is just full of anti-solos

------------------------------------------------------------------------------
Now She's Black
------------------------------------------------------------------------------


Intro
e---------------------------------------------------|
B---------------------------------------------------|
G-----------------xx--------------------------------| x4
D-----------------9x---------5-5-2-2-7-5-4-5-2------|
A-2-2/7--7-8-7------xx-7-7-9-----------------2------|
E--------------7--7x-------------------------0------|


e-------------------------------------------------|
B-------------------------------------------------|
G--4-5--2-----4-5--2------4-3--2------4-5--2-9----|
D--4-5--2-2---4-5--2-2----4-3--2-2----4-5--2-9----|
A--2-3--0-2---2-3--0-2----2-3--0-2----2-3--0-7----|
E---------0----------0-----------0----------------|


e-----------------------------|
B-----------------------------|
G--99----12---9--99----12-----|
D--99-9--12---9--99-9--12-----|
A--77-9--10---7--77-9--10-----|
E-----7-------------7---------|

chorus
e------------------------------------------|
B------------------------------------------|
G--9-9-x--x-9-9-9-9---------12-12-12-12----| x4
D--9-9-x--x-9-9-9-9--9-9-9--12-12-12-12----|
A--7-7-x--x-7-7-7-7--9-9-9--10-10-10-10----|
E--------------------7-7-7-----------------|


riff
e-------------------|
B-------------------|
G--------------8----|
D--------------8----|
A--2-2h5p4p2---6----|
E-------------------|

chorus
riff


riff#2
e-------------------------------------------|
B-------------------------------------------|
G-------------------------------------------|
D-----------------------2------7--9-10------|
A--2--------------------2------5--7-8-------|
E--0-0-2-3-0-0-/5-3-2-3-0--2-3--------------|

riff
Suggest correction
What's this?
You can suggest a correction to this tab. Community and Mods will review your correction and vote to approve or reject it.
comments
We did not receive enough feedback on this tab! Please rate:
print report bad tab
1 2 3 4 5
guest
You may want to rate the tab now too:
select rating
Please do not post tabs as comments. Select "correction" instead!