Oops, an error
Loading. Please wait.

My War Bass Tab

version 1
version 1

Whole song

Interactive

4,982 views 6 this week
1 commentread comment
1 2 3 4 5
not so good
x 4
add to favorites
launch autoscroll
font size
0
reset
guitar tuner
Tab Pro tools
  • play this tab
  • loop segment
  • change instrument
  • show fretboard
  • metronome
Autoscroll
slow
fast
+/-
esc
set tempo
stop
Difficulty
novice
During the intro, I usually just play an open A.

Verse Riff:
G|-----------------|--------------------------------------------------|
D|-----------------|--------------------------------------------------|
A|-----------------|--------------------------------------------------|
E|---5p2-2-2-2-2---|--5p2-2--5p2-2--5p2-2--5p2-2---4-xxxx-4-4---------|
         x4

On the second verse, it's played normally for the first and third repeats, but the 
repeat is played on the A string instead as a variation, listen for it, and you'll catch it.

Chorus
G|-----------------------------------------------------------|
D|------------4-5------------3-4------------2-3--------------|
A|--5-5-5-5-5------4-4-4-4-4------3-3-3-3-3------0--2--0--2--|
E|-----------------------------------------------------------|
                              x2
G|--------------|----|
D|--------------|----|     Follow the guitar on this part.
A|--0--2--0--2--|----|
E|--------------|-0~-|
        x2

Overall, it's a very easy song. I can't figure out what to play for the intro/bridge, so 
suggestions are welcome.
comments
print report bad tab
1 comment total.
0 reply
djerzinski wrote on July 21 2009, 09:19 am

For the intro/bridge, there is 2 version. I dont remember the album version, but the live version is a chromatic progression like:
A|-7-7-7-7-7-7-7-7--8-8-8-8-8-8-8-8-||-6-6-6-6-6-6-6-6-6-|-7-7-7-7-7-7-7-7- | etc.
and at the end 4-4-4-4-5-5-5-5-6-6-6-6-7-7-7-7 or something like that (i dont remember exactly, i dont have my bass at the moment)

I want to post or [tab]
guest
You may want to rate the tab now too:
select rating
Please do not post tabs as comments. Select "correction" instead!