Oops, an error
Loading. Please wait.

My War Tab

version 3
version 3

Whole song

Interactive

2,225 views 3 this week
no commentswrite comment
1 2 3 4 5
please rate
add to favorites
launch autoscroll
font size
0
reset
how to read this tab
guitar tuner
Tab Pro tools
  • play this tab
  • loop segment
  • change instrument
  • show fretboard
  • metronome
×
Best way to learn
"My War"
Autoscroll
slow
fast
+/-
esc
set tempo
stop
Contributor
Difficulty
novice
Band - Black Flag
Song - My War
Album - My War

Tabbed By: Tyler Freear (SumFX)

Tuning: Standard (E A D G B E)

I Can't Understand Why Black Flag Got So Much Hate For The
'My War' Album. I Think It Is Fantastic.

Anywho, This Is The Title Track From The Album!

Intro
|-------------------|------------------|
|-5-----------------|------------------|
|----6----7-5-------|----5-3-------7-5-|
|-------0------3----|------------------|
|-------------------|--3------4--5-----|
|-------------------|------------------|

|-------------------|------------------|
|-------------------|------------------|
|-8-6----9-7--------|-5/7--------------|
|-----5------6--5---|------------------|
|-------------------|------------------|
|-------------------|------------------|

Verse
|------------------------------------------|
|------------------------------------------|
|------------------------------------------|
|------------------------------------------|
|------------------------------------------|
|-4-2222222-5-2222222-4-2222222-5-2222222--|

|-------------------------|
|-------------------------|
|-------------------------|
|-------------------------|
|-------------------------|
|-4-222-5-222-4-222-5-222-|

|-------------------|
|-------------------|
|-------------------|
|-6-------66-6666---|
|-6-xxxxx-66-6666---|
|-4-xxxxx-44-4444---|

|------------------------------------------|
|------------------------------------------|
|------------------------------------------|
|------------------------------------------|
|-4-2222222-5-2222222-4-2222222-5-2222222--|
|------------------------------------------|

|-------------------------|
|-------------------------|
|-------------------------|
|-------------------------|
|-4-222-5-222-4-222-5-222-|
|-------------------------|

|-------------------|
|-------------------|
|-6-------66-6666---|
|-6-xxxxx-66-6666---|
|-4-xxxxx-44-4444---|
|-------------------|

|------------------------------------------|
|------------------------------------------|
|------------------------------------------|
|------------------------------------------|
|------------------------------------------|
|-4-2222222-5-2222222-4-2222222-5-2222222--|

|-------------------------|
|-------------------------|
|-------------------------|
|-------------------------|
|-------------------------|
|-4-222-5-222-4-222-5-222-|

|----------------------------------------|
|----------------------------------------|
|----------------------------------------|
|-------4-5-------3-4--------2-3---------| x2
|-55555-----44444------33333-----0-2-0-2-|
|----------------------------------------|

Post Verse 1
|------------------------------|
|------------------------------|
|------------------------------|
|---------------------2--------|
|-0-2-0-2---0-2-0-2---2--------|
|---------------------0--------|

Post Verse 2
|---------------------|
|---------------------|
|---------------------|
|---------------------|
|-0-2-0-2---0-2-0-2---|
|---------------------|

Bridge
|-----------------|-----------------------------|
|-5---------------|-----------------------------|
|----0------------|---5-3--------7-----8-----9--|
|------1-0---3--3-|--------3--------------------|
|-----------------|-3---------5-----6-----7-----|
|-----------------|-----------------------------|

|-------------------|
|-------------------|
|-6-7--6-4----------|
|----------3--------|
|-------------------|
|-------------------|

Post Verse 3/Outro
|---------------------------------------------|
|---------------------------------------------|
|---------------------------------------------|
|---------------------------------------------|
|-0-2-0-2--0-2-0-2--0-2-0-2-------------------|
|----------------------------0-2-0-2--0-2-0-2-|

|---------------------------------------------|
|---------------------------------------------|
|---------------------------------------------|
|---------------------------------------------|
|-------------------0-2-0-2--0-2-0-2--0-2-0-2-|
|-0-2-0-2--0-2-0-2----------------------------|

E5
|-------------------|
|-------------------|
|-------------------|
|-2-----------------|
|-2-----------------|
|-0-----------------|

Structure
Intro
Verse
Post Verse
Verse
Post Verse 2
Bridge
Verse
Post Verse 3/Outro
E5

Thats It! My War!
comments
We did not receive enough feedback on this tab! Please rate:
print report bad tab
1 2 3 4 5
I want to post or [tab]
guest
You may want to rate the tab now too:
select rating
Please do not post tabs as comments. Select "correction" instead!