Oops, an error
Loading. Please wait.

My War Tab

version 4
version 4

Whole song

  • Based off the studio version (https://www.youtube.com/watch?v=nB_tGab-t0g).

Interactive

34 views 3 this week
no commentswrite comment
1 2 3 4 5
3 more votes to show rating
add to favorites
launch autoscroll
font size
0
reset
how to read this tab
guitar tuner
Autoscroll
slow
fast
+/-
esc
set tempo
stop
Help us to improve Ultimate-Guitar.com Take our survey!
×
Author
Difficulty
novice
[Intro]
e|-----------------------------------------------------------------------------------------------------------|
B|-----------------3-----------------1-----------------3----------/4-----------------------------------------|
G|---9-----6----------5-----------------3------------------5------------6------------------------------------|
D|---------------0--------3-------------------------0------------------------5-------------------------------|
A|---------------------------------3-------4-----------------------------------------------------------------|
E|-----------------------------------------------------------------------------------------------------------|

e|-----------------------------------------------------------------------------------------------------------|
B|--------/5---------------------/3--------------------------------------------------------------------------|
G|-------------7---------------------------------------------------------------------------------------------|
D|-----------------6---5-------------------------------------------------------------------------------------|
A|-----------------------------------------------------------------------------------------------------------|
E|-----------------------------------------------------------------------------------------------------------|

[Verse]
e|-----------------------------------------------------------------------------------------------------------|
B|-----------------------------------------------------------------------------------------------------------|
G|-----------------------------------------------------------------------------------------------------------|
D|-----------------------------------------------------------------------------------------------------------|
A|-----------------------------------------------------------------------------------------------------------|
E|---(4)--(4)--(2)--(2)--4--2--2--2--2--2--2--2--5--2--2--2--2--2--2--2--------------------------------------|
P. M........................................................................... 
    
 (Play first four notes first time only)
e|-----------------------------------------------------------------------------------------------------------|
B|-----------------------------------------------------------------------------------------------------------|
G|-----------------------------------------------------------------------------------------------------------|
D|-----------------------------------------------------------------------------------------------------------|
A|-----------------------------------------------------------------------------------------------------------|
E|--4--2--2--2--2--2--2--2--5--2--2--2--2--2--2--2--4--2--2--2--5--2--2--2--4--2--2--2--5--2--2--2-----------|
P.M...............................................................................................
e|-----------------------------------------------------------------------------------------------------------|
B|-----------------------------------------------------------------------------------------------------------|
G|-----------------------------------------------------------------------------------------------------------|
D|-----------------------------------------------------------------------------------------------------------|
A|--6--x--x--x--x--x--6--6-----------------------------------------------------------------------------------|
E|--4--x--x--x--x--x--4--4-----------------------------------------------------------------------------------|

(Shift everything up one string, and play once; then play the original position once more.)

[Chorus]
e|---------------------------------------------------------------------------------------------------------|
B|---------------------------------------------------------------------------------------------------------|
G|---------------------------------------------------------------------------------------------------------|x2
D|------------------4--5------------------3--4--------------------2--3-------------------------------------|
A|---5--5--5--5--5---------4--4--4--4--4-----------3--3--3--3--3-----------------7---9-----7----9----------|
E|-------------------------------------------------------------------------------5---7-----5----7----------|

e|-----------------------------------------------------------------------------------------------------------|
B|-----------------------------------------------------------------------------------------------------------|
G|-----------------------------------------------------------------------------------------------------------|
D|-----------------------------------------------------------------------------------------------------------|
A|-----------7--9------7--9---------7----9-----7----9--------2-----------------------------------------------|
E|-----------5--7------5--7---------5----7-----5----7--------0-----------------------------------------------|

[Bridge]
e|-----------------------------------------------------------------------------------------------------------|
B|------------------------------------3-------------------1--------------------------------------------------|
G|----9----------0--------------------------------------------3----------------------------------------------|
D|-------------------------1---0---------4--3--3--------------------/3---------------------------------------|
A|----------------------------------------------------3------------------------------------------------------|
E|-----------------------------------------------------------------------------------------------------------|

e|-----------------------------------------------------------------------------------------------------------|
B|-------3---------4--------5-----(5p)--2---------/3-----------2---------------------------------------------|
G|---------------------------------------------------------------0-------------------------------------------|
D|--0----------1-------2-------------------------------------------3-----------------------------------------|
A|-----------------------------------------------------------------------------------------------------------|
E|-----------------------------------------------------------------------------------------------------------|

[Outro]
e|-----------------------------------------------------------------------------------------------------------|
B|-----------------------------------------------------------------------------------------------------------|
G|-----------------------------------------------------------------------------------------------------------|
D|-----------------------------------------------------------------------------------------------------------|
A|----7---9---7---9------7--9-----7---9--------2----4----2----4----------2-----------------------------------|
E|----5---7---5---7------5--7-----5---7--------0----2----0----2----------0-----------------------------------|


************************************

| /    Slide up
| (n)  Ghost note
| x    Dead note

************************************
Suggest correction
Give kudos to tab author, rate the tab!
1 2 3 4 5
comments
print report bad tab
guest
You may want to rate the tab now too:
select rating
Wanna post a correction for this tab? Suggest correction